Sound will begin in 5 seconds

Title Bitch

Chords
01234567891011121314151617181920212223
E
B
G
D
A
E
B
0 1 2 3 4 5 6 7 8 9 10 11 12 13 14 15 16 17 18 19 20 21 22 23
Song Science #1: How Pros Use 6 Chords to Write Hit Songs
(/) Slide Up  (\) Slide Down  (h) Hammer On  (p) Pull Off  (b) Bend (r) Release (v) Vibrato

Stave 1:

E|---------------
B|---------------
G|---------------
D|--7--10--2/14--
A|--7--10--2-----
E|--5--8---0-----

Stave 2:

E|-------------------------------------------------------------
B|--------------------------15b17------------------------------
G|------------------------------------------------------14b16--
D|-------------------------------------------------------------
A|-----------0--1--0---------------------0--1--0---------------
E|-----0--3-----------3--0---------0--3-----------3--0---------

Stave 3:

E|------------------------------
B|------------------------------
G|----------14--15--14----------
D|--14--17--------------17--14--
A|------------------------------
E|------------------------------

Stave 4:

E|-----------------------------
B|-------13------13h15p13------
G|---14------14----------------
D|-------------------------14--
A|-----------------------------
E|--p--------------------------

http://www.guitartabcreator.com
Guitar Tab Creator is intended to store guitar tab created through the tool. It currently does not support in-line text editing. Any text you place in here will be lost. If you need to comment on your tab, please use the "Tab Notes" section located below.