Sound will begin in 5 seconds

F-Zero X Endless Challenge (Mute City)

01234567891011121314151617181920212223
E
B
G
D
A
E
B
0 1 2 3 4 5 6 7 8 9 10 11 12 13 14 15 16 17 18 19 20 21 22 23
Song Science #1: How Pros Use 6 Chords to Write Hit Songs
(/) Slide Up  (\) Slide Down  (h) Hammer On  (p) Pull Off  (b) Bend (r) Release (v) Vibrato

Stave 1:

E|------------------------------------------------------------------15v--v------------------15--16--15--------------
B|------------------------------------------------------15--16--18--------------------------------------18--16--15--
G|--------------------------------------------------17--------------------------------------------------------------
D|------------------------------------------------------------------------------------------------------------------
A|------------------------------------------------------------------------------------------------------------------
E|------------------------------------------------------------------------------------------------------------------

Stave 2:

E|------------------------------------------------------------------15------18--16--15------15----------------------
B|--17b18--16--15------15--16--17b18--16--15------------15--16--18------18--------------18------18--16--15----------
G|-----------------17-------------------------17----17------------------------------------------------------17--15--
D|------------------------------------------------------------------------------------------------------------------
A|------------------------------------------------------------------------------------------------------------------
E|------------------------------------------------------------------------------------------------------------------

Stave 3:

E|---------------------------------------------------------10--11v--------------------------------------
B|-------------------------------------------------11--13-----------------------------------------------
G|--12b14--12b14v--------------------------------------------------------------------------------9b10v--
D|-------------------------------------------------------------------------------------------11---------
A|------------------------------------------------------------------------------------8--11-------------
E|------------------------------------------------------------------------------------------------------

Stave 4:

E|-------------------------------------------10v--------------------10--11--12b13v--------------------------------
B|----------------10--11--13v--------10--11---------------------13------------------------------------------------
G|------------12-----------------12---------------------------------------------------------------------------10--
D|--------------------------------------------------------------------------------------------------------11------
A|----------------------------------------------------------------------------------------------------------------
E|----------------------------------------------------------------------------------------------------------------

Stave 5:

E|---------------9--12b13v----------16b18--16--14--13------13----------------------------------------------------------
B|------------9----------------------------------------16------14--13--------------------------------------------------
G|--------10-----------------------------------------------------------15--13--------------13--15------13--15--15b16v--
D|-----------------------------------------------------------------------------16--15--16----------16------------------
A|---------------------------------------------------------------------------------------------------------------------
E|---------------------------------------------------------------------------------------------------------------------

Stave 6:

E|-----9v----------------------------14--13----------------------------------------------------------------------------
B|--9----------------------------14----------16--14--13--14-------------------------------------------------14--15b16--
G|---------------------------13------------------------------13b15--13------------------------------13--15-------------
D|-----------------------11---------------------------------------------16--15--13------13--15--16---------------------
A|----------------------------------------------------------------------------------16---------------------------------
E|---------------------------------------------------------------------------------------------------------------------

Stave 7:

E|-----------------------------------------------------------
B|-------6----4-------------6---------------------------------
G|--5----5----3----3----5----5----8-----------------------------
D|--5----3----1----3----5----3----8----8----8--8--8--8--8--8--8--
A|--3-------------1----3---------6----8----8--8--8--8--8--8--8--
E|----------------------------------8----8--8--8--8--8--8--8--

Stave 8:

E|----------------------------------------------------------------------------------------------------------
B|----------------------------------------------------------------------------------------------------------
G|--5--x--5--x--5--x--3--x--3--x--3--x--5--x--5--x--5--x--3--x--5v------6--x--6--x--6--x--3--x--3--x--3--x--
D|--5--x--5--x--5--x--3--x--3--x--3--x--5--x--5--x--5--x--3--x--5-------6--x--6--x--6--x--3--x--3--x--3--x--
A|--3--x--3--x--3--x--1--x--1--x--1--x--3--x--3--x--3--x--1--x--3-------4--x--4--x--4--x--1--x--1--x--1--x--
E|----------------------------------------------------------------------------------------------------------

Stave 9:

E|-----------------------------
B|-----------------------------
G|--6--x--6--x--6--x--3--x--3v--
D|--6--x--6--x--6--x--3--x--3---
A|--4--x--4--x--4--x--1--x--1---
E|-----------------------------

Stave 10:

E|-------------------------------------------------------------------------------------------------------
B|-------------------4-------------3-------3-------------------------------------------------------------
G|--5--x--5--------5-------------5----------------3-------3-----4--x--4---------------4--x--4-------------
D|--5--x--5-----5-------------5----------5-----5-------5-----5--4--x--4----4--x--4----4--x--4----4--x--4--
A|--3--x--3--3-------------3------------------------------------2--x--2----4--x--4----2--x--2----4--x--4--
E|------------------------------------------------------------------------4--x--4---------------4--x--4--

Stave 11:

E|--------------------------------------------
B|------------7--4----------------------------
G|------------6--3--4-------5--5--5--5--5--5--
D|--1--3--4----4--1--4-------5--5--5--5--5--5--
A|--1--3--4----------2v------3--3--3--3--3--3--
E|--1--3--4------------------------------------

http://www.guitartabcreator.com
Guitar Tab Creator is intended to store guitar tab created through the tool. It currently does not support in-line text editing. Any text you place in here will be lost. If you need to comment on your tab, please use the "Tab Notes" section located below.