Paranoia (Lead) 2

Chords

01234567891011121314151617181920212223
E
B
G
D
A
E
B
0 1 2 3 4 5 6 7 8 9 10 11 12 13 14 15 16 17 18 19 20 21 22 23
(/) Slide Up  (\) Slide Down  (h) Hammer On  (p) Pull Off  (b) Bend (r) Release (v) Vibrato

Stave 1:

D|--10--------------------------------------------------------10-------------10-----9--9--10--9--
A|--10-------------------------------------13--11--10---------10-------------10-----9--9--10--9--
F|--10-----10--10--10--10--12--10--12--10--------------12-----10-----10--10--10-----9--9--10--9--
C|---------11--12----------------------------------------------------11--12----------------------
G|-----------------------------------------------------------------------------------------------
D|-----------------------------------------------------------------------------------------------

Stave 2:

D|--------------------------
A|-----4-----4-----4-----4--
F|--4-----3-----2-----1-----
C|--------------------------
G|--------------------------
D|--------------------------

Stave 3:

D|--11--11---------9------9--------------2--------------------------11----------9---9---9---9------------2--------------------------
A|--12------12-----9---9-----9--------2-----2--------------4------------12--12--9---9---9---9---------2-----2--------------4--------
F|--13-------------10--------------3-----------3--------3-----3---------13------10--10--11--10-----3-----------3--------3-----3-----
C|-----------------11-----------4--------------------4-----------4--------------11--11--11--11--4--------------------4-----------4--
G|------------------------------------------------2---------------------------------------------------------------2-----------------
D|----------------------------------------------------------------------------------------------------------------------------------

Stave 4:

D|------------------------------------------------------
A|-----------9b11--11r9------------7--7--6--6--4--3-----
F|--8--8--6--------------8--8--10--------------------2--
C|------------------------------------------------------
G|------------------------------------------------------
D|------------------------------------------------------

Stave 5:

D|------------------------------------------10----------10--9--9--10--9--
A|--------------------------13--11--10------10----------10--9--9--10--9--
F|--10--10--12--10--12--10--------------12--10--10--10--10--9--9--10--9--
C|----------------------------------------------11--12-------------------
G|-----------------------------------------------------------------------
D|-----------------------------------------------------------------------

							http://www.guitartabcreator.com
Instruments
{"strings":[[[10,"_",".",".",".",".",".",".",".",".",".",".",".",".","_",10,"_",".",".",10,"_",9,9,10,9],[10,"_",".",".",".",".",".",".",".",".",13,11,10,".","_",10,"_",".",".",10,"_",9,9,10,9],[10,"_",10,10,10,10,12,10,12,10,".",".",".",12,"_",10,"_",10,10,10,"_",9,9,10,9],[".","_",11,12,".",".",".",".",".",".",".",".",".",".","_",".","_",11,12,".","_",".",".",".","."],[".","_",".",".",".",".",".",".",".",".",".",".",".",".","_",".","_",".",".",".","_",".",".",".","."],[".","_",".",".",".",".",".",".",".",".",".",".",".",".","_",".","_",".",".",".","_",".",".",".","."]],[[".",".",".",".",".",".",".","."],[".",4,".",4,".",4,".",4],[4,".",3,".",2,".",1,"."],[".",".",".",".",".",".",".","."],[".",".",".",".",".",".",".","."],[".",".",".",".",".",".",".","."]],[[11,11,".","_",9,".",9,".",".",".",".",2,".",".",".",".",".",".",".",".",11,".",".",9,9,9,9,".",".",".",2,".",".",".",".",".",".",".","."],[12,".",12,"_",9,9,".",9,".",".",2,".",2,".",".",".",".",4,".",".",".",12,12,9,9,9,9,".",".",2,".",2,".",".",".",".",4,".","."],[13,".",".","_",10,".",".",".",".",3,".",".",".",3,".",".",3,".",3,".",".",13,".",10,10,11,10,".",3,".",".",".",3,".",".",3,".",3,"."],[".",".",".","_",11,".",".",".",4,".",".",".",".",".",".",4,".",".",".",4,".",".",".",11,11,11,11,4,".",".",".",".",".",".",4,".",".",".",4],[".",".",".","_",".",".",".",".",".",".",".",".",".",".",2,".",".",".",".",".",".",".",".",".",".",".",".",".",".",".",".",".",".",2,".",".",".",".","."],[".",".",".","_",".",".",".",".",".",".",".",".",".",".",".",".",".",".",".",".",".",".",".",".",".",".",".",".",".",".",".",".",".",".",".",".",".",".","."]],[[".",".",".",".",".",".",".",".",".",".",".",".",".",".",".",".",".",".","."],[".",".",".",9,"b",11,11,"r",9,".",".",".",7,7,6,6,4,3,"."],[8,8,6,".",".",".",".",".",".",8,8,10,".",".",".",".",".",".",2],[".",".",".",".",".",".",".",".",".",".",".",".",".",".",".",".",".",".","."],[".",".",".",".",".",".",".",".",".",".",".",".",".",".",".",".",".",".","."],[".",".",".",".",".",".",".",".",".",".",".",".",".",".",".",".",".",".","."]],[[".",".",".",".",".",".",".",".",".",".",10,".",".",10,9,9,10,9],[".",".",".",".",".",".",13,11,10,".",10,".",".",10,9,9,10,9],[10,10,12,10,12,10,".",".",".",12,10,10,10,10,9,9,10,9],[".",".",".",".",".",".",".",".",".",".",".",11,12,".",".",".",".","."],[".",".",".",".",".",".",".",".",".",".",".",".",".",".",".",".",".","."],[".",".",".",".",".",".",".",".",".",".",".",".",".",".",".",".",".","."]]],"numberofstrings":6,"notes":["D","A","F","C","G","D"],"capo":0,"stringnotes":["D3","A2","F2","C2","G1","D1"],"comments":["Stave 1:","Stave 2:","Stave 3:","Stave 4:","Stave 5:"],"timing":[["W",null,"W","W","W","W","W","W","W","W","W","W","W","W",null,"W",null,"W","W","W",null,"W","W","W","W"],["W","W","W","W","W","W","W","W"],["W","W","W",null,"W","W","W","W","W","W","W","W","W","W","W","W","W","W","W","W","W","W","W","W","W","W","W","W","W","W","W","W","W","W","W","W","W","W","W"],["W","W","W","W",null,"W","W",null,"W","W","W","W","W","W","W","W","W","W","W"],["W","W","W","W","W","W","W","W","W","W","W","W","W","W","W","W","W","W"]],"timingvisible":false,"tabcounter":17,"stave":4,"totalstaves":5,"instrument":"6guitar","selectedtuning":"Full Step Down","version":"13"}

Member for

1 month 3 weeks
Submitted by Jack Edward Lawther on Sun, 2020-10-18 06:13