Paranoia (Lead)

Chords

01234567891011121314151617181920212223
E
B
G
D
A
E
B
0 1 2 3 4 5 6 7 8 9 10 11 12 13 14 15 16 17 18 19 20 21 22 23
(/) Slide Up  (\) Slide Down  (h) Hammer On  (p) Pull Off  (b) Bend (r) Release (v) Vibrato

Stave 1:

D|--4--4/6--7--9--9-----9--9b10-----9--9--9/16--16--16--16--16--16--16--
A|----------------------------------------------------------------------
F|----------------------------------------------------------------------
C|----------------------------------------------------------------------
G|----------------------------------------------------------------------
D|----------------------------------------------------------------------

Stave 2:

D|-----4-----6--4--------4-----6--4-----0--------6--4-----------------------------
A|--6--4-----4--4-----6--4-----4--4-----0--6-----4--4--------4-----4-----4--------
F|--4--4-----4--4-----4--4-----4--4-----1--4-----4--4-----4-----3-----2-----1-----
C|--6--4-----4--4-----6--4-----4--4-----2--6-----4--4-----------------------------
G|--5-----------------5-----------------2--4--------------------------------------
D|--------------------------------------0-----------------------------------------

Stave 3:

D|--2--
A|--2--
F|--3--
C|--4--
G|--4--
D|--2--

Stave 4:

D|--7-----4-----------------2--------------------------7-----7----------1-----------2-----------------------
A|--9-----6--6-----------2-----2--------------4-----------9-----9\2--2-----------2-----2-----------4--------
F|--8-----6-----6-----3-----------3--------3-----3----------------------------3-----------------3-----3-----
C|-----------------4--------------------4-----------4----------------------4-----------------4-----------4--
G|-----------------------------------2----------------------------------------------------2-----------------
D|----------------------------------------------------------------------------------------------------------

Stave 5:

D|--11--11---------------------9--------------2----------------------7-----7-----------------------------2--------------------------
A|--12------12------9-------9-----9--------2-----2-----------4----------9-----9--------6--7--6--------2-----2--------------4--------
F|--13----------13--10--10--------------3-----------------3-----3/8--------------6--6--------------3-----------3--------3-----3-----
C|------------------11---------------4-----------------4----------------------------------------4--------------------4-----------4--
G|--------------------------------------------------2-------------------------------------------------------------2-----------------
D|----------------------------------------------------------------------------------------------------------------------------------

							http://www.guitartabcreator.com
Instruments
{"strings":[[[4,4,"/",6,7,9,9,"_",9,9,"b",10,"_",9,9,9,"/",16,16,16,16,16,16,16],[".",".",".",".",".",".",".","_",".",".",".",".","_",".",".",".",".",".",".",".",".",".",".","."],[".",".",".",".",".",".",".","_",".",".",".",".","_",".",".",".",".",".",".",".",".",".",".","."],[".",".",".",".",".",".",".","_",".",".",".",".","_",".",".",".",".",".",".",".",".",".",".","."],[".",".",".",".",".",".",".","_",".",".",".",".","_",".",".",".",".",".",".",".",".",".",".","."],[".",".",".",".",".",".",".","_",".",".",".",".","_",".",".",".",".",".",".",".",".",".",".","."]],[[".",4,"_",6,4,"_",".",4,"_",6,4,"_",0,".","_",6,4,"_",".",".",".",".",".",".",".","_"],[6,4,"_",4,4,"_",6,4,"_",4,4,"_",0,6,"_",4,4,"_",".",4,".",4,".",4,".","_"],[4,4,"_",4,4,"_",4,4,"_",4,4,"_",1,4,"_",4,4,"_",4,".",3,".",2,".",1,"_"],[6,4,"_",4,4,"_",6,4,"_",4,4,"_",2,6,"_",4,4,"_",".",".",".",".",".",".",".","_"],[5,".","_",".",".","_",5,".","_",".",".","_",2,4,"_",".",".","_",".",".",".",".",".",".",".","_"],[".",".","_",".",".","_",".",".","_",".",".","_",0,".","_",".",".","_",".",".",".",".",".",".",".","_"]],[[2],[2],[3],[4],[4],[2]],[[7,"_",4,".",".",".",".",".",2,".",".",".",".",".",".",".",".",7,".",7,".",".",".",".",1,".",".",".",2,".",".",".",".",".",".","."],[9,"_",6,6,".",".",".",2,".",2,".",".",".",".",4,".",".",".",9,".",9,"\\",2,2,".",".",".",2,".",2,".",".",".",4,".","."],[8,"_",6,".",6,".",3,".",".",".",3,".",".",3,".",3,".",".",".",".",".",".",".",".",".",".",3,".",".",".",".",".",3,".",3,"."],[".","_",".",".",".",4,".",".",".",".",".",".",4,".",".",".",4,".",".",".",".",".",".",".",".",4,".",".",".",".",".",4,".",".",".",4],[".","_",".",".",".",".",".",".",".",".",".",2,".",".",".",".",".",".",".",".",".",".",".",".",".",".",".",".",".",".",2,".",".",".",".","."],[".","_",".",".",".",".",".",".",".",".",".",".",".",".",".",".",".",".",".",".",".",".",".",".",".",".",".",".",".",".",".",".",".",".",".","."]],[[11,11,".",".",".",".",".",9,".",".",".",".",2,".",".",".",".",".",".",".",".",7,".",7,".",".",".",".",".",".",".",".",".",2,".",".",".",".",".",".",".","."],[12,".",12,".",9,".",9,".",9,".",".",2,".",2,".",".",".",4,".",".",".",".",9,".",9,".",".",6,7,6,".",".",2,".",2,".",".",".",".",4,".","."],[13,".",".",13,10,10,".",".",".",".",3,".",".",".",".",".",3,".",3,"/",8,".",".",".",".",6,6,".",".",".",".",3,".",".",".",3,".",".",3,".",3,"."],[".",".",".",".",11,".",".",".",".",4,".",".",".",".",".",4,".",".",".",".",".",".",".",".",".",".",".",".",".",".",4,".",".",".",".",".",".",4,".",".",".",4],[".",".",".",".",".",".",".",".",".",".",".",".",".",".",2,".",".",".",".",".",".",".",".",".",".",".",".",".",".",".",".",".",".",".",".",".",2,".",".",".",".","."],[".",".",".",".",".",".",".",".",".",".",".",".",".",".",".",".",".",".",".",".",".",".",".",".",".",".",".",".",".",".",".",".",".",".",".",".",".",".",".",".",".","."]]],"numberofstrings":6,"notes":["D","A","F","C","G","D"],"capo":0,"stringnotes":["D3","A2","F2","C2","G1","D1"],"comments":["Stave 1:","Stave 2:","Stave 3:","Stave 4:","Stave 5:"],"timing":[["W","W",null,"W","W","W","W",null,"W","W",null,"W",null,"W","W","W",null,"W","W","W","W","W","W","W"],["W","W",null,"W","W",null,"W","W",null,"W","W",null,"W","W",null,"W","W",null,"W","W","W","W","W","W","W"],["W"],["W",null,"W","W","W","W","W","W","W","W","W","W","W","W","W","W","W","W","W","W","W",null,"W","W","W","W","W","W","W","W","W","W","W","W","W","W"],["W","W","W","W","W","W","W","W","W","W","W","W","W","W","W","W","W","W","W",null,"W","W","W","W","W","W","W","W","W","W","W","W","W","W","W","W","W","W","W","W","W","W"]],"timingvisible":false,"tabcounter":42,"stave":4,"totalstaves":5,"instrument":"6guitar","selectedtuning":"Full Step Down","version":"13"}

Member for

1 month 3 weeks
Submitted by Jack Edward Lawther on Sun, 2020-10-18 05:36