Paranoia (bass)

Chords

01234567891011121314151617181920212223
E
B
G
D
A
E
B
0 1 2 3 4 5 6 7 8 9 10 11 12 13 14 15 16 17 18 19 20 21 22 23
(/) Slide Up  (\) Slide Down  (h) Hammer On  (p) Pull Off  (b) Bend (r) Release (v) Vibrato

Stave 1:

F|------------------------------------------------------------------------------------------------13--
C|--9--9--8--8--7--7--6--6--9--9--8--8--7--7--6--6--9--9--8--8--7--7--6--6--9--9--8--8--7--7----------
G|--------------------------------------------------------------------------------------------11------
D|----------------------------------------------------------------------------------------------------

Stave 2:

F|---------------------------------------------------------------------13--
C|--3--4--3--1--------------1--------------------9--9--8--8--7--7----------
G|-----------------2--2--4--------------1--2-----------------------11------
D|--------------------------------4--4-------------------------------------

Stave 3:

F|-----------------
C|-----------------
G|--------1--------
D|--2--------4--2--

Stave 4:

F|--------------------------------------------------
C|--------------------------------------------------
G|--2--2--2--2--4--4--6--8--9--9--9--9--8--8--6--4--
D|--------------------------------------------------

Stave 5:

F|--------------------------------------------------------------------------------------------------
C|-----------------------0--3--3--3--4--5--5--5--3-----------------------0--3--3--3--3--2--2--3--2--
G|--1--1--1--0--1--1--3-----------------------------1--1--1--0--1--1--3-----------------------------
D|--------------------------------------------------------------------------------------------------

							http://www.guitartabcreator.com
Instruments
{"strings":[[[".",".",".",".",".",".",".",".",".",".",".",".",".",".",".",".",".",".",".",".",".",".",".",".",".",".",".",".",".",".",".",13],[9,9,8,8,7,7,6,6,9,9,8,8,7,7,6,6,9,9,8,8,7,7,6,6,9,9,8,8,7,7,".","."],[".",".",".",".",".",".",".",".",".",".",".",".",".",".",".",".",".",".",".",".",".",".",".",".",".",".",".",".",".",".",11,"."],[".",".",".",".",".",".",".",".",".",".",".",".",".",".",".",".",".",".",".",".",".",".",".",".",".",".",".",".",".",".",".","."]],[[".",".",".",".","_",".",".",".",".","_",".",".",".",".","_",".",".",".",".",".",".",".",13],[3,4,3,1,"_",".",".",".",1,"_",".",".",".",".","_",9,9,8,8,7,7,".","."],[".",".",".",".","_",2,2,4,".","_",".",".",1,2,"_",".",".",".",".",".",".",11,"."],[".",".",".",".","_",".",".",".",".","_",4,4,".",".","_",".",".",".",".",".",".",".","."]],[[".","_",".",".","."],[".","_",".",".","."],[".","_",1,".","."],[2,"_",".",4,2]],[[".",".",".",".",".",".",".",".",".",".",".",".",".",".",".","."],[".",".",".",".",".",".",".",".",".",".",".",".",".",".",".","."],[2,2,2,2,4,4,6,8,9,9,9,9,8,8,6,4],[".",".",".",".",".",".",".",".",".",".",".",".",".",".",".","."]],[[".",".",".",".",".",".",".",".",".",".",".",".",".",".",".",".",".",".",".",".",".",".",".",".",".",".",".",".",".",".",".","."],[".",".",".",".",".",".",".",0,3,3,3,4,5,5,5,3,".",".",".",".",".",".",".",0,3,3,3,3,2,2,3,2],[1,1,1,0,1,1,3,".",".",".",".",".",".",".",".",".",1,1,1,0,1,1,3,".",".",".",".",".",".",".",".","."],[".",".",".",".",".",".",".",".",".",".",".",".",".",".",".",".",".",".",".",".",".",".",".",".",".",".",".",".",".",".",".","."]]],"numberofstrings":4,"notes":["F","C","G","D"],"capo":0,"stringnotes":["F2","C2","G1","D1"],"comments":["Stave 1:","Stave 2:","Stave 3:","Stave 4:","Stave 5:"],"timing":[["W","W","W","W","W","W","W","W","W","W","W","W","W","W","W","W","W","W","W","W","W","W","W","W","W","W","W","W","W","W","W","W"],["W","W","W","W",null,"W","W","W","W",null,"W","W","W","W",null,"W","W","W","W","W","W","W","W"],["W","W","W","W","W"],["W","W","W","W","W","W","W","W","W","W","W","W","W","W","W","W"],["W","W","W","W","W","W","W","W","W","W","W","W","W","W","W","W","W","W","W","W","W","W","W","W","W","W","W","W","W","W","W","W"]],"timingvisible":false,"tabcounter":32,"stave":4,"totalstaves":5,"instrument":"4bass","selectedtuning":"4bass","version":"13"}

Member for

1 month 3 weeks
Submitted by Jack Edward Lawther on Sun, 2020-10-18 06:49