Not Changing Bass

01234567891011121314151617181920212223
E
B
G
D
A
E
B
0 1 2 3 4 5 6 7 8 9 10 11 12 13 14 15 16 17 18 19 20 21 22 23
(/) Slide Up  (\) Slide Down  (h) Hammer On  (p) Pull Off  (b) Bend (r) Release (v) Vibrato

Stave 1:

G|------------------------------------5h6p5--
D|-----------6-----6-----------5h6p5---------
A|--------------------6-----6----------------
E|--4-----4----------------------------------

Stave 2:

G|----------------------------------5h6p5--
D|-----------6-----6\2-----2/5h6p5---------
A|-----------------------------------------
E|--4-----4--------------------------------

Stave 3:

G|-----------------------------------------
D|-----------------------------3-----------
A|-----6--4-----6--4--3--6--4-----4--3-----
E|--4--------6--------------------------4--

Stave 4:

G|-------------------------------------------------------------------------------------------
D|-----------------------6----------------------3--3--4-----------2--2--1-----------2--2--1--
A|--6--4-----6--4--3--4--------------6-------------------------------------------------------
E|--------6-----------------4-----4-----4\1--1-----------0-----0-----------0-----0-----------

Stave 5:

G|-------------------------------------------------------------------------------------------
D|--6--6--5--5--3--3-----------------------------6--5--5--3--3-------------------------------
A|--------------------6--6--4--4--3--3--4--6--6-----------------6--6--4--4--3--3/7--7--6--6--
E|-------------------------------------------------------------------------------------------

Stave 6:

G|-----------------------------------------------------------------------
D|-----------------------------------------------------------------------
A|-----------------------------------------------------------------------
E|--4-----4--4-----4--0-----0--3--3--4-----4--4-----4--0-----0-----3--3--

Stave 7:

G|--------------------------------------------
D|--------6--------6-----------6--------6-----
A|--------------------------------------------
E|--4--------4--4-----4--0--------0--0-----0--

Stave 8:

G|----------------------------------------------------
D|---------12--------9-----------3--3--4--4--5--5--5--
A|-----10---------7-----------------------------------
E|--0----------0--------0--3--3-----------------------

							http://www.guitartabcreator.com
Chords

Instruments
{"strings":[[[".","_",".",".","_",".",".","_",".",".",".",".",".",".",5,"h",6,"p",5],[".","_",".",6,"_",6,".","_",".",5,"h",6,"p",5,".",".",".",".","."],[".","_",".",".","_",".",6,"_",6,".",".",".",".",".",".",".",".",".","."],[4,"_",4,".","_",".",".","_",".",".",".",".",".",".",".",".",".",".","."]],[[".","_",".",".","_",".",".",".","_",".",".",".",".",".",".",".",5,"h",6,"p",5],[".","_",".",6,"_",6,"\\",2,"_",2,"/",5,"h",6,"p",5,".",".",".",".","."],[".","_",".",".","_",".",".",".","_",".",".",".",".",".",".",".",".",".",".",".","."],[4,"_",4,".","_",".",".",".","_",".",".",".",".",".",".",".",".",".",".",".","."]],[[".",".",".",".",".",".",".",".",".",".",".",".","."],[".",".",".",".",".",".",".",".",".",3,".",".","."],[".",6,4,".",6,4,3,6,4,".",4,3,"."],[4,".",".",6,".",".",".",".",".",".",".",".",4]],[[".",".",".",".",".",".",".",".",".","_",".",".",".",".",".",".",".",".",".",".","_",".",".",".",".",".","_",".",".",".","."],[".",".",".",".",".",".",".",6,".","_",".",".",".",".",".",".",3,3,4,".","_",".",2,2,1,".","_",".",2,2,1],[6,4,".",6,4,3,4,".",".","_",".",6,".",".",".",".",".",".",".",".","_",".",".",".",".",".","_",".",".",".","."],[".",".",6,".",".",".",".",".",4,"_",4,".",4,"\\",1,1,".",".",".",0,"_",0,".",".",".",0,"_",0,".",".","."]],[[".",".",".",".",".",".",".",".",".",".",".",".",".",".",".",".",".",".",".",".",".",".",".",".",".",".",".",".",".",".","."],[6,6,5,5,3,3,".",".",".",".",".",".",".",".",".",6,5,5,3,3,".",".",".",".",".",".",".",".",".",".","."],[".",".",".",".",".",".",6,6,4,4,3,3,4,6,6,".",".",".",".",".",6,6,4,4,3,3,"/",7,7,6,6],[".",".",".",".",".",".",".",".",".",".",".",".",".",".",".",".",".",".",".",".",".",".",".",".",".",".",".",".",".",".","."]],[[".","_",".",".","_",".",".","_",".",".",".",".","_",".",".","_",".",".","_",".","_",".","."],[".","_",".",".","_",".",".","_",".",".",".",".","_",".",".","_",".",".","_",".","_",".","."],[".","_",".",".","_",".",".","_",".",".",".",".","_",".",".","_",".",".","_",".","_",".","."],[4,"_",4,4,"_",4,0,"_",0,3,3,4,"_",4,4,"_",4,0,"_",0,"_",3,3]],[[".","_",".",".",".",".",".",".","_",".",".",".",".","."],[".","_",6,".",".",6,".",".","_",6,".",".",6,"."],[".","_",".",".",".",".",".",".","_",".",".",".",".","."],[4,"_",".",4,4,".",4,0,"_",".",0,0,".",0]],[[".",".",".",".",".",".",".",".",".",".",".",".",".",".",".","."],[".",".",12,".",".",9,".",".",".",3,3,4,4,5,5,5],[".",10,".",".",7,".",".",".",".",".",".",".",".",".",".","."],[0,".",".",0,".",".",0,3,3,".",".",".",".",".",".","."]]],"numberofstrings":4,"notes":["G","D","A","E"],"capo":0,"stringnotes":["G2","D2","A1","E1"],"comments":["Stave 1:","Stave 2:","Stave 3:","Stave 4:","Stave 5:","Stave 6:","Stave 7:","Stave 8:"],"timing":[["W","W","W","W","W","W","W","W","W","W",null,"W",null,"W","W",null,"W",null,"W","W","W","W","W","W","W","W"],["W","W","W","W","W","W",null,"W","W","W",null,"W",null,"W",null,"W","W",null,"W",null,"W"],["W","W","W","W","W","W","W","W","W","W","W","W","W"],["W","W","W","W","W","W","W","W","W","W","W","W","W",null,"W","W","W","W","W","W","W","W","W","W","W","W","W","W","W","W","W"],["W","W","W","W","W","W","W","W","W","W","W","W","W","W","W","W","W","W","W","W","W","W","W","W","W","W",null,"W","W","W","W"],["W","W","W","W","W","W","W","W","W","W","W","W","W","W","W","W","W","W","W","W","W","W","W"],["W","W","W","W","W","W","W","W","W","W","W","W","W","W"],["W","W","W","W","W","W","W","W","W","W","W","W","W","W","W","W","W","W","W","W","W"]],"timingvisible":false,"tabcounter":16,"stave":7,"totalstaves":8,"instrument":"4bass","selectedtuning":"4bass","version":"13"}

Member for

1 year 1 month
Submitted by Jack Edward Lawther on Mon, 2021-05-10 09:44