Madonna (Guitar 1)

01234567891011121314151617181920212223
E
B
G
D
A
E
B
0 1 2 3 4 5 6 7 8 9 10 11 12 13 14 15 16 17 18 19 20 21 22 23
(/) Slide Up  (\) Slide Down  (h) Hammer On  (p) Pull Off  (b) Bend (r) Release (v) Vibrato

Stave 1:

E|--9---9---8--8--8---8---8---8---
B|--9---9---8--8--10--9---9---9---
G|--10--10--8--8--10--10--10--10--
D|--------------------------------
A|--------------------------------
E|--------------------------------

Stave 2:

E|--------------------
B|--------10--9---10--
G|--------10--10--10--
D|--------------------
A|--8--8--------------
E|--------------------

Stave 3:

E|------------------------------
B|--10-----------12--13-----9---
G|--10-----------10--10-----10--
D|--10-----------10--10-----10--
A|------------------------------
E|------------------------------

							http://www.guitartabcreator.com
Chords

Instruments
{"strings":[[[9,9,8,8,8,8,8,8],[9,9,8,8,10,9,9,9],[10,10,8,8,10,10,10,10],[".",".",".",".",".",".",".","."],[".",".",".",".",".",".",".","."],[".",".",".",".",".",".",".","."]],[[".",".",".",".","."],[".",".",10,9,10],[".",".",10,10,10],[".",".",".",".","."],[8,8,".",".","."],[".",".",".",".","."]],[[".","_","_","_",".",".","_","."],[10,"_","_","_",12,13,"_",9],[10,"_","_","_",10,10,"_",10],[10,"_","_","_",10,10,"_",10],[".","_","_","_",".",".","_","."],[".","_","_","_",".",".","_","."]]],"numberofstrings":6,"notes":["E","B","G","D","A","E","B"],"capo":0,"stringnotes":["E4","B3","G3","D3","A2","E2"],"comments":["Stave 1:","Stave 2:","Stave 3:"],"timing":[["W","W","W","W","W","W","W","W"],["W","W","W","W","W"],["W","W","W","W","W","W","W","W"]],"timingvisible":false,"tabcounter":7,"stave":2,"totalstaves":3,"instrument":"6guitar","selectedtuning":"6_standard","version":"13"}

Member for

1 year 1 month
Submitted by Jack Edward Lawther on Sun, 2021-05-02 11:38