Madonna Bass

01234567891011121314151617181920212223
E
B
G
D
A
E
B
0 1 2 3 4 5 6 7 8 9 10 11 12 13 14 15 16 17 18 19 20 21 22 23
(/) Slide Up  (\) Slide Down  (h) Hammer On  (p) Pull Off  (b) Bend (r) Release (v) Vibrato

Stave 1:

G|-----------------------------------------------------------------------------------4-----4-----4--
D|--------------------------------------------------------------------------3--3--3-----3-----3-----
A|--4--4--4--4--4--3--3--3--------------------------4--4--4--4--4--3--3--3--------------------------
E|--------------------------1--1--1--1--1--1--3--4--------------------------------------------------

Stave 2:

G|--------------------------------
D|--------------------------------
A|--4-----------6--4--3-----------
E|--------------------------------

Stave 3:

G|--------------------------------------------------
D|--------------------------------------------------
A|--------------------------------------------------
E|--1--1--------1--1--------1--1--------1--1--------

Stave 4:

G|--------------------------------------------------------------------
D|--------------------------------------------------------------------
A|--------------------------------------------------------------------
E|-----1-----1--1--1/13--13--12--12-----1-----1--1--1/10--10--12--12--

Stave 5:

G|-------------------------------------------------------------
D|-------------------------------------------------------------
A|-------------------------------------------------------------
E|--1-----1--1--1/13--13--12--12-----1-----1--1--1/9--9--8--8--

							http://www.guitartabcreator.com
Chords

Instruments
{"strings":[[[".",".",".",".",".",".",".",".",".",".",".",".",".",".",".",".",".",".",".",".",".",".",".",".",".",".",".",4,".",4,".",4],[".",".",".",".",".",".",".",".",".",".",".",".",".",".",".",".",".",".",".",".",".",".",".",".",3,3,3,".",3,".",3,"."],[4,4,4,4,4,3,3,3,".",".",".",".",".",".",".",".",4,4,4,4,4,3,3,3,".",".",".",".",".",".",".","."],[".",".",".",".",".",".",".",".",1,1,1,1,1,1,3,4,".",".",".",".",".",".",".",".",".",".",".",".",".",".",".","."]],[[".","_","_","_",".",".",".","_","_","_"],[".","_","_","_",".",".",".","_","_","_"],[4,"_","_","_",6,4,3,"_","_","_"],[".","_","_","_",".",".",".","_","_","_"]],[[".",".","_","_",".",".","_","_",".",".","_","_",".",".","_","_"],[".",".","_","_",".",".","_","_",".",".","_","_",".",".","_","_"],[".",".","_","_",".",".","_","_",".",".","_","_",".",".","_","_"],[1,1,"_","_",1,1,"_","_",1,1,"_","_",1,1,"_","_"]],[["_",".","_",".",".",".",".",".",".",".",".","_",".","_",".",".",".",".",".",".",".","."],["_",".","_",".",".",".",".",".",".",".",".","_",".","_",".",".",".",".",".",".",".","."],["_",".","_",".",".",".",".",".",".",".",".","_",".","_",".",".",".",".",".",".",".","."],["_",1,"_",1,1,1,"/",13,13,12,12,"_",1,"_",1,1,1,"/",10,10,12,12]],[[".","_",".",".",".",".",".",".",".",".","_",".","_",".",".",".",".",".",".",".","."],[".","_",".",".",".",".",".",".",".",".","_",".","_",".",".",".",".",".",".",".","."],[".","_",".",".",".",".",".",".",".",".","_",".","_",".",".",".",".",".",".",".","."],[1,"_",1,1,1,"/",13,13,12,12,"_",1,"_",1,1,1,"/",9,9,8,8]]],"numberofstrings":4,"notes":["G","D","A","E"],"capo":0,"stringnotes":["G2","D2","A1","E1"],"comments":["Stave 1:","Stave 2:","Stave 3:","Stave 4:","Stave 5:"],"timing":[["W","W","W","W","W","W","W","W","W","W","W","W","W","W","W","W","W","W","W","W","W","W","W","W","W","W","W","W","W","W","W","W"],["W","W","W","W","W","W","W","W","W","W"],["W","W","W","W","W","W","W","W","W","W","W","W","W","W","W","W"],["W","W","W","W","W","W",null,"W","W","W","W","W","W","W","W","W","W",null,"W","W","W","W"],["W","W","W","W","W",null,"W","W","W","W","W","W","W","W","W","W",null,"W","W","W","W"]],"timingvisible":false,"tabcounter":21,"stave":4,"totalstaves":5,"instrument":"4bass","selectedtuning":"4bass","version":"13"}

Member for

1 year 1 month
Submitted by Jack Edward Lawther on Sun, 2021-05-02 11:08