IMBGML (Licks)

Chords

01234567891011121314151617181920212223
E
B
G
D
A
E
B
0 1 2 3 4 5 6 7 8 9 10 11 12 13 14 15 16 17 18 19 20 21 22 23
(/) Slide Up  (\) Slide Down  (h) Hammer On  (p) Pull Off  (b) Bend (r) Release (v) Vibrato

Stave 1:

D|--1--1--1--1--1--1--1--1--5--5--5--5--5--5--5--5--
A|--1--1--1--1--1--1--1--1--5--5--5--5--5--5--5--5--
F|--2--2--2--2--2--2--2--2--6--6--6--6--6--6--6--6--
C|--3--3--3--3--3--3--3--3--7--7--7--7--7--7--7--7--
G|--3--3--3--3--3--3--3--3--7--7--7--7--7--7--7--7--
D|--1--0--1--0--1--0--1--0--5--4--5--4--5--4--5--4--

Stave 2:

D|--------------------------
A|--3--3--3--3--3--3--3--3--
F|--3--3--3--3--3--3--3--3--
C|--3--3--3--3--3--3--3--3--
G|--1--0--1--0--1--0--1--0--
D|--------------------------

							http://www.guitartabcreator.com
Instruments
{"strings":[[[1,1,1,1,1,1,1,1,5,5,5,5,5,5,5,5],[1,1,1,1,1,1,1,1,5,5,5,5,5,5,5,5],[2,2,2,2,2,2,2,2,6,6,6,6,6,6,6,6],[3,3,3,3,3,3,3,3,7,7,7,7,7,7,7,7],[3,3,3,3,3,3,3,3,7,7,7,7,7,7,7,7],[1,0,1,0,1,0,1,0,5,4,5,4,5,4,5,4]],[[".",".",".",".",".",".",".","."],[3,3,3,3,3,3,3,3],[3,3,3,3,3,3,3,3],[3,3,3,3,3,3,3,3],[1,0,1,0,1,0,1,0],[".",".",".",".",".",".",".","."]]],"numberofstrings":6,"notes":["D","A","F","C","G","D"],"capo":0,"stringnotes":["D3","A2","F2","C2","G1","D1"],"comments":["Stave 1:","Stave 2:"],"timing":[["W","W","W","W","W","W","W","W","W","W","W","W","W","W","W","W"],["W","W","W","W","W","W","W","W"]],"timingvisible":false,"tabcounter":7,"stave":1,"totalstaves":2,"instrument":"6guitar","selectedtuning":"Full Step Down","version":"13"}

Member for

1 month 3 weeks
Submitted by Jack Edward Lawther on Sun, 2020-10-18 07:42