IBGML bass

Chords

01234567891011121314151617181920212223
E
B
G
D
A
E
B
0 1 2 3 4 5 6 7 8 9 10 11 12 13 14 15 16 17 18 19 20 21 22 23
(/) Slide Up  (\) Slide Down  (h) Hammer On  (p) Pull Off  (b) Bend (r) Release (v) Vibrato

Stave 1:

F|-----------------------------------------------------------------------------------------------------------------
C|-----------------------------------3--2--0-----------------------------------------------------------3--2--0-----
G|--------------------------------------------3--------------------3--1--0--1-----1--0--------------------------3--
D|--------------------1--1-----1--1--------------1--1-----1--1--------------------------1--1-----1--1--------------

Stave 2:

F|-----------------------------------------
C|-----------------------------------------
G|-----------------------------------------
D|--1--1-----1--1--3--5-----5--5--3--3--0--

Stave 3:

F|-----------------------------------------------------------------
C|-----------------------------------------------------3--2--0-----
G|-----------------3--1--0--1-----1--0--------------------------3--
D|--1--1-----1--1-----------------------1--1-----1--1--------------

Stave 4:

F|-----------7-----------------------------------------------------------------
C|--------7-----7--------5-----------------------------------------------------
G|--5--5--------------5-----5--------------------------------------------------
D|-----------------3-----------1--0--1--0--1--0--1--0--5--4--5--4--5--4--5--4--

Stave 5:

F|-----------------------------------------------------------------
C|-----------------------5-----------------------------------------
G|--5--5--3--3--------5-----5--1-----0--1--0--1--0--1--3--3--3--3--
D|--------------3--3-----------------------------------------------

Stave 6:

F|-----
C|-----
G|-----
D|--1--

							http://www.guitartabcreator.com
Instruments
{"strings":[[["_","_","_","_","_","_",".",".","_",".",".",".",".",".",".",".",".","_",".",".","_",".",".",".",".","_",".",".",".",".","_",".",".",".",".",".","."],["_","_","_","_","_","_",".",".","_",".",".",3,2,0,".",".",".","_",".",".","_",".",".",".",".","_",".",".",".",".","_",".",".",3,2,0,"."],["_","_","_","_","_","_",".",".","_",".",".",".",".",".",3,".",".","_",".",".","_",3,1,0,1,"_",1,0,".",".","_",".",".",".",".",".",3],["_","_","_","_","_","_",1,1,"_",1,1,".",".",".",".",1,1,"_",1,1,"_",".",".",".",".","_",".",".",1,1,"_",1,1,".",".",".","."]],[[".",".","_",".",".",".",".","_",".",".",".",".","."],[".",".","_",".",".",".",".","_",".",".",".",".","."],[".",".","_",".",".",".",".","_",".",".",".",".","."],[1,1,"_",1,1,3,5,"_",5,5,3,3,0]],[[".",".","_",".",".",".",".",".",".","_",".",".",".",".","_",".",".",".",".",".","."],[".",".","_",".",".",".",".",".",".","_",".",".",".",".","_",".",".",3,2,0,"."],[".",".","_",".",".",3,1,0,1,"_",1,0,".",".","_",".",".",".",".",".",3],[1,1,"_",1,1,".",".",".",".","_",".",".",1,1,"_",1,1,".",".",".","."]],[[".",".",".",7,".",".",".",".",".",".",".",".",".",".",".",".",".",".",".",".",".",".",".",".","."],[".",".",7,".",7,".",".",5,".",".",".",".",".",".",".",".",".",".",".",".",".",".",".",".","."],[5,5,".",".",".",".",5,".",5,".",".",".",".",".",".",".",".",".",".",".",".",".",".",".","."],[".",".",".",".",".",3,".",".",".",1,0,1,0,1,0,1,0,5,4,5,4,5,4,5,4]],[[".",".",".",".",".",".",".",".",".",".","_",".",".",".",".",".",".",".",".",".","."],[".",".",".",".",".",".",".",5,".",".","_",".",".",".",".",".",".",".",".",".","."],[5,5,3,3,".",".",5,".",5,1,"_",0,1,0,1,0,1,3,3,3,3],[".",".",".",".",3,3,".",".",".",".","_",".",".",".",".",".",".",".",".",".","."]],[["."],["."],["."],[1]]],"numberofstrings":4,"notes":["F","C","G","D"],"capo":0,"stringnotes":["F2","C2","G1","D1"],"comments":["Stave 1:","Stave 2:","Stave 3:","Stave 4:","Stave 5:","Stave 6:"],"timing":[[null,null,null,null,null,null,"W","W",null,"W","W","W","W","W","W","W","W",null,"W","W",null,"W","W","W","W",null,"W","W","W","W",null,"W","W","W","W","W","W"],["W","W",null,"W","W","W","W",null,"W","W","W","W","W"],["W","W",null,"W","W","W","W","W","W",null,"W","W","W","W",null,"W","W","W","W","W","W"],["W","W","W","W","W","W","W","W","W","W","W","W","W","W","W","W","W","W","W","W","W","W","W","W","W"],["W","W","W","W","W","W","W","W","W","W",null,"W","W","W","W","W","W","W","W","W","W"],["W"]],"timingvisible":false,"tabcounter":1,"stave":5,"totalstaves":6,"instrument":"4bass","selectedtuning":"4bass","version":"13"}

Member for

1 month 3 weeks
Submitted by Jack Edward Lawther on Sun, 2020-10-18 11:57