Fish (Rhythm Guitar)

Chords

01234567891011121314151617181920212223
E
B
G
D
A
E
B
0 1 2 3 4 5 6 7 8 9 10 11 12 13 14 15 16 17 18 19 20 21 22 23
(/) Slide Up  (\) Slide Down  (h) Hammer On  (p) Pull Off  (b) Bend (r) Release (v) Vibrato

Stave 1:

E|-----------------------------------------------10--10--10--10--10-----13--
B|-----8--8--8--8--8--7-----8--8--8--8--8--7-----10--10--10--10--10-----12--
G|-----9--9--9--9--9--9-----9--9--9--9--9--9-----10--10--10--10--10-----12--
D|--------------------------------------------------------------------------
A|--------------------------------------------------------------------------
E|--------------------------------------------------------------------------

Stave 2:

E|--1--1--x-----1-----1--1--x-----------3--3--x-----3-----3--3--x--------
B|--1--1--x-----1-----1--1--x--5--5-----3--3--x-----3-----3--3--x--5--5--
G|--2--2--x-----2-----2--2--x--5--5-----3--3--x-----3-----3--3--x--5--5--
D|--3--3--x-----3-----3--3--x--5--5-----5--5--x-----5-----5--5--x--5--5--
A|--3--3--x-----3-----3--3--x--3--3-----5--5--x-----5-----5--5--x--3--3--
E|--1--1--x--1--1-----1--1--x-----------3--3--x--3--3-----3--3--x--------

Stave 3:

E|--1--1--x-----1-----1--1--x-----------3--3--x-----3--------------------
B|--1--1--x-----1-----1--1--x--5--5-----3--3--x-----3-----5--5--x--6--6--
G|--2--2--x-----2-----2--2--x--5--5-----3--3--x-----3-----5--5--x--6--6--
D|--3--3--x-----3-----3--3--x--5--5-----5--5--x-----5-----5--5--x--6--6--
A|--3--3--x-----3-----3--3--x--3--3-----5--5--x-----5-----3--3--x--4--4--
E|--1--1--x--1--1-----1--1--x-----------3--3--x--3--3--------------------

Stave 4:

E|--0--
B|--1--
G|--2--
D|--3--
A|-----
E|-----

Stave 5:

E|-----0--------0--------0--0--0--------0--0--------0--0--------0--------0--0--0--------0--0--------
B|--------1--------1--------4-----4-----3-----3-----5-----5--------5--------7-----7-----6-----6-----
G|-----------2--------2-----4--------4--4--------4--6--------6--------6-----7--------7--7--------7--
D|--3-----------------------------------------------7-----------------------------------------------
A|--------------------------------------------------------------------------------------------------
E|--------------------------------------------------------------------------------------------------

Stave 6:

E|--0--0--------0--------0--0--0--------0--0-----------0--------0--------0--0--
B|--5-----5--------5--------4-----4-----3-----3-----------1--------1--------0--
G|--6--------6--------6-----4--------4--4--------4-----------2--------2-----1--
D|--7-----------------------------------------------3-----------------------2--
A|--------------------------------------------------------------------------2--
E|--------------------------------------------------------------------------0--

							http://www.guitartabcreator.com
Instruments
{"strings":[[["_",".",".",".",".",".",".","_",".",".",".",".",".",".","_",10,10,10,10,10,"_",13],["_",8,8,8,8,8,7,"_",8,8,8,8,8,7,"_",10,10,10,10,10,"_",12],["_",9,9,9,9,9,9,"_",9,9,9,9,9,9,"_",10,10,10,10,10,"_",12],["_",".",".",".",".",".",".","_",".",".",".",".",".",".","_",".",".",".",".",".","_","."],["_",".",".",".",".",".",".","_",".",".",".",".",".",".","_",".",".",".",".",".","_","."],["_",".",".",".",".",".",".","_",".",".",".",".",".",".","_",".",".",".",".",".","_","."]],[[1,1,"x1",".",1,"_",1,1,"x1",".",".","_",3,3,"x3",".",3,"_",3,3,"x3",".","."],[1,1,"x1",".",1,"_",1,1,"x1",5,5,"_",3,3,"x3",".",3,"_",3,3,"x3",5,5],[2,2,"x2",".",2,"_",2,2,"x2",5,5,"_",3,3,"x3",".",3,"_",3,3,"x3",5,5],[3,3,"x3",".",3,"_",3,3,"x3",5,5,"_",5,5,"x5",".",5,"_",5,5,"x5",5,5],[3,3,"x3",".",3,"_",3,3,"x3",3,3,"_",5,5,"x5",".",5,"_",5,5,"x5",3,3],[1,1,"x1",1,1,"_",1,1,"x1",".",".","_",3,3,"x3",3,3,"_",3,3,"x3",".","."]],[[1,1,"x1",".",1,"_",1,1,"x1",".",".","_",3,3,"x3",".",3,"_",".",".",".",".","."],[1,1,"x1",".",1,"_",1,1,"x1",5,5,"_",3,3,"x3",".",3,"_",5,5,"x5",6,6],[2,2,"x2",".",2,"_",2,2,"x2",5,5,"_",3,3,"x3",".",3,"_",5,5,"x5",6,6],[3,3,"x3",".",3,"_",3,3,"x3",5,5,"_",5,5,"x5",".",5,"_",5,5,"x5",6,6],[3,3,"x3",".",3,"_",3,3,"x3",3,3,"_",5,5,"x5",".",5,"_",3,3,"x3",4,4],[1,1,"x1",1,1,"_",1,1,"x1",".",".","_",3,3,"x3",3,3,"_",".",".",".",".","."]],[[0],[1],[2],[3],["."],["."]],[[".",0,".",".",0,".",".",0,0,0,".",".",0,0,".",".",0,0,".",".",0,".",".",0,0,0,".",".",0,0,".","."],[".",".",1,".",".",1,".",".",4,".",4,".",3,".",3,".",5,".",5,".",".",5,".",".",7,".",7,".",6,".",6,"."],[".",".",".",2,".",".",2,".",4,".",".",4,4,".",".",4,6,".",".",6,".",".",6,".",7,".",".",7,7,".",".",7],[3,".",".",".",".",".",".",".",".",".",".",".",".",".",".",".",7,".",".",".",".",".",".",".",".",".",".",".",".",".",".","."],[".",".",".",".",".",".",".",".",".",".",".",".",".",".",".",".",".",".",".",".",".",".",".",".",".",".",".",".",".",".",".","."],[".",".",".",".",".",".",".",".",".",".",".",".",".",".",".",".",".",".",".",".",".",".",".",".",".",".",".",".",".",".",".","."]],[[0,0,".",".",0,".",".",0,0,0,".",".",0,0,".",".",".",0,".",".",0,".",".",0,0],[5,".",5,".",".",5,".",".",4,".",4,".",3,".",3,".",".",".",1,".",".",1,".",".",0],[6,".",".",6,".",".",6,".",4,".",".",4,4,".",".",4,".",".",".",2,".",".",2,".",1],[7,".",".",".",".",".",".",".",".",".",".",".",".",".",".",".",3,".",".",".",".",".",".",".",2],[".",".",".",".",".",".",".",".",".",".",".",".",".",".",".",".",".",".",".",".",".",".",".",".",2],[".",".",".",".",".",".",".",".",".",".",".",".",".",".",".",".",".",".",".",".",".",".",".",".",0]]],"numberofstrings":6,"notes":["E","B","G","D","A","E","B"],"capo":0,"stringnotes":["E4","B3","G3","D3","A2","E2"],"comments":["Stave 1:","Stave 2:","Stave 3:","Stave 4:","Stave 5:","Stave 6:"],"timing":[[null,null,null,null,null,null,null,null,null,null,null,null,null,null,null,null,null,null,null,null,null,null],[null,null,null,null,null,null,null,null,null,null,null,null,null,null,null,null,null,null,null,null,null,null,null],[null,null,null,null,null,null,null,null,null,null,null,null,null,null,null,null,null,null,null,null,null,null,null],[null],[null,null,null,null,null,null,null,null,null,null,null,null,null,null,null,null,null,null,null,null,null,null,null,null,null,null,null,null,null,null,null,null],[null,null,null,null,null,null,null,null,null,null,null,null,null,null,null,null,null,null,null,null,null,null,null,null,null]],"timingvisible":false,"tabcounter":24,"stave":5,"totalstaves":6,"instrument":"6guitar","selectedtuning":"6_standard","version":"13"}

Member for

1 month 3 weeks
Submitted by Jack Edward Lawther on Wed, 2020-10-07 10:39