Fish (Lead guitar) Part two

Chords

01234567891011121314151617181920212223
E
B
G
D
A
E
B
0 1 2 3 4 5 6 7 8 9 10 11 12 13 14 15 16 17 18 19 20 21 22 23
(/) Slide Up  (\) Slide Down  (h) Hammer On  (p) Pull Off  (b) Bend (r) Release (v) Vibrato

Stave 1:

E|------------------------------------------------------------------------------------------------------------------
B|------------------------------------------10--8--11--10------------------------------------------10--8--11--8-----
G|-----2--1--2--5--10--9---------10--9--10--------------------2--1--2--5--10--9---------10--9--10-------------------
D|--3---------------------10--8----------------------------3---------------------10--8------------------------------
A|------------------------------------------------------------------------------------------------------------------
E|------------------------------------------------------------------------------------------------------------------

Stave 2:

E|------
B|--10--
G|--9---
D|--10--
A|--8---
E|------

Stave 3:

E|----------------------------------------------------------------------------
B|-----10/17\16--15--14--12--10-----10/17-----17--12--12--17--17--12--13--12--
G|----------------------------------------------------------------------------
D|----------------------------------------------------------------------------
A|----------------------------------------------------------------------------
E|----------------------------------------------------------------------------

							http://www.guitartabcreator.com
Instruments
{"strings":[[[".",".",".",".",".",".",".",".",".",".",".",".",".",".",".",".",".",".",".",".",".",".",".",".",".",".",".",".",".",".",".",".","_"],[".",".",".",".",".",".",".",".",".",".",".",".",10,8,11,10,".",".",".",".",".",".",".",".",".",".",".",".",10,8,11,8,"_"],[".",2,1,2,5,10,9,".",".",10,9,10,".",".",".",".",".",2,1,2,5,10,9,".",".",10,9,10,".",".",".",".","_"],[3,".",".",".",".",".",".",10,8,".",".",".",".",".",".",".",3,".",".",".",".",".",".",10,8,".",".",".",".",".",".",".","_"],[".",".",".",".",".",".",".",".",".",".",".",".",".",".",".",".",".",".",".",".",".",".",".",".",".",".",".",".",".",".",".",".","_"],[".",".",".",".",".",".",".",".",".",".",".",".",".",".",".",".",".",".",".",".",".",".",".",".",".",".",".",".",".",".",".",".","_"]],[["."],[10],[9],[10],[8],["."]],[["_",".",".",".",".",".",".",".",".",".","_",".",".",".","_",".",".",".",".",".",".",".","."],["_",10,"/",17,"\\",16,15,14,12,10,"_",10,"/",17,"_",17,12,12,17,17,12,13,12],["_",".",".",".",".",".",".",".",".",".","_",".",".",".","_",".",".",".",".",".",".",".","."],["_",".",".",".",".",".",".",".",".",".","_",".",".",".","_",".",".",".",".",".",".",".","."],["_",".",".",".",".",".",".",".",".",".","_",".",".",".","_",".",".",".",".",".",".",".","."],["_",".",".",".",".",".",".",".",".",".","_",".",".",".","_",".",".",".",".",".",".",".","."]]],"numberofstrings":6,"notes":["E","B","G","D","A","E","B"],"capo":0,"stringnotes":["E4","B3","G3","D3","A2","E2"],"comments":["Stave 1:","Stave 2:","Stave 3:"],"timing":[["W","W","W","W","W","W","W","W","W","W","W","W","W","W","W","W","W","W","W","W","W","W","W","W","W","W","W","W","W","W","W","W"],["W"],["W","W",null,"W",null,"W","W","W","W","W",null,"W",null,"W",null,"W","W","W","W","W","W","W","W"]],"timingvisible":false,"tabcounter":23,"stave":2,"totalstaves":3,"instrument":"6guitar","selectedtuning":"6_standard","version":"13"}

Member for

1 month 3 weeks
Submitted by Jack Edward Lawther on Wed, 2020-10-07 07:37