Fish (Bass)

Chords

01234567891011121314151617181920212223
E
B
G
D
A
E
B
0 1 2 3 4 5 6 7 8 9 10 11 12 13 14 15 16 17 18 19 20 21 22 23
(/) Slide Up  (\) Slide Down  (h) Hammer On  (p) Pull Off  (b) Bend (r) Release (v) Vibrato

Stave 1:

G|-----------2--------------------------------------------------------
D|--------------------------------------------5--5--5--5--0--2--2-----
A|--0-----0-----------0--2--0-----------------------------------------
E|-----2-----------2-----------2--3--0--0-----------------------------

Stave 2:

G|-----------2------------------------------------
D|--------------------------------------------5v--
A|--0-----0-----------0--2--0---------------------
E|-----2-----------2-----------2--3--0--0---------

Stave 3:

G|--------------------7--5--3--2--0-----0--2--0-----10--9--7--5--
D|--3-----2--3--2--------------------3---------------------------
A|-----3-----------3---------------------------------------------
E|---------------------------------------------------------------

Stave 4:

G|--------------------7--5--3--2--0-----0--2--0-----10--9--7--6--
D|--3-----2--3--2--------------------3---------------------------
A|-----3-----------3---------------------------------------------
E|---------------------------------------------------------------

Stave 5:

G|-----------------------------------------------------
D|--------3--2--------3--2--------3--2-----------------
A|-----3--------3-----------3-----------3-----3--2--1--
E|--1--------------1-----------1-----------------------

Stave 6:

G|----------------------------------------6--6--4--4-----------------------------------------------------------
D|-------------------------------7--------------------7--7--6--6--4--4--2--2--4--4--6--6--3--3--3--3--3--3--3--
A|--------------------0--2--4/8--------------------------------------------------------------------------------
E|-------------------------------------------------------------------------------------------------------------

Stave 7:

G|--------------------------------------
D|--2--2--2--3--3--3--4--4--4--6--6--6--
A|--------------------------------------
E|--------------------------------------

Stave 8:

G|--------------------------------------------------------------
D|-----------------------------------------5--5--5--5--0--2--2--
A|--0-----0--------0--2--0--------------------------------------
E|-----2--------2-----------2--3--0--0--------------------------

Stave 9:

G|-----------2------------------------------
D|--------------------------------------5v--
A|--0-----0--------0--2--0------------------
E|-----2--------2-----------2--3--0--0------

Stave 10:

G|-----
D|-----
A|-----
E|--1--

							http://www.guitartabcreator.com
Instruments
{"strings":[[[".",".",".",2,"_",".",".",".",".",".",".",".",".","_",".",".",".",".",".",".",".","_"],[".",".",".",".","_",".",".",".",".",".",".",".",".","_",5,5,5,5,0,2,2,"_"],[0,".",0,".","_",".",0,2,0,".",".",".",".","_",".",".",".",".",".",".",".","_"],[".",2,".",".","_",2,".",".",".",2,3,0,0,"_",".",".",".",".",".",".",".","_"]],[[".",".",".",2,"_",".",".",".",".",".",".",".",".","_",".","."],[".",".",".",".","_",".",".",".",".",".",".",".",".","_",5,"v"],[0,".",0,".","_",".",0,2,0,".",".",".",".","_",".","."],[".",2,".",".","_",2,".",".",".",2,3,0,0,"_",".","."]],[[".",".",".",".",".",".",7,5,3,2,0,".",0,2,0,"_",10,9,7,5],[3,".",2,3,2,".",".",".",".",".",".",3,".",".",".","_",".",".",".","."],[".",3,".",".",".",3,".",".",".",".",".",".",".",".",".","_",".",".",".","."],[".",".",".",".",".",".",".",".",".",".",".",".",".",".",".","_",".",".",".","."]],[[".",".",".",".",".",".",7,5,3,2,0,".",0,2,0,"_",10,9,7,6],[3,".",2,3,2,".",".",".",".",".",".",3,".",".",".","_",".",".",".","."],[".",3,".",".",".",3,".",".",".",".",".",".",".",".",".","_",".",".",".","."],[".",".",".",".",".",".",".",".",".",".",".",".",".",".",".","_",".",".",".","."]],[[".",".",".",".",".",".",".",".",".",".",".",".",".","_",".",".","."],[".",".",3,2,".",".",3,2,".",".",3,2,".","_",".",".","."],[".",3,".",".",3,".",".",".",3,".",".",".",3,"_",3,2,1],[1,".",".",".",".",1,".",".",".",1,".",".",".","_",".",".","."]],[["_","_","_","_","_","_",".",".",".",".",".",".","_","_",6,6,4,4,".",".",".",".",".",".",".",".",".",".",".",".",".",".",".",".",".",".","."],["_","_","_","_","_","_",".",".",".",".",".",7,"_","_",".",".",".",".",7,7,6,6,4,4,2,2,4,4,6,6,3,3,3,3,3,3,3],["_","_","_","_","_","_",0,2,4,"/",8,".","_","_",".",".",".",".",".",".",".",".",".",".",".",".",".",".",".",".",".",".",".",".",".",".","."],["_","_","_","_","_","_",".",".",".",".",".",".","_","_",".",".",".",".",".",".",".",".",".",".",".",".",".",".",".",".",".",".",".",".",".",".","."]],[[".",".",".",".",".",".",".",".",".",".",".","."],[2,2,2,3,3,3,4,4,4,6,6,6],[".",".",".",".",".",".",".",".",".",".",".","."],[".",".",".",".",".",".",".",".",".",".",".","."]],[[".",".",".","_",".",".",".",".",".",".",".",".","_",".",".",".",".",".",".","."],[".",".",".","_",".",".",".",".",".",".",".",".","_",5,5,5,5,0,2,2],[0,".",0,"_",".",0,2,0,".",".",".",".","_",".",".",".",".",".",".","."],[".",2,".","_",2,".",".",".",2,3,0,0,"_",".",".",".",".",".",".","."]],[[".",".",".",2,".",".",".",".",".",".",".",".",".","."],[".",".",".",".",".",".",".",".",".",".",".",".",5,"v"],[0,".",0,".",".",0,2,0,".",".",".",".",".","."],[".",2,".",".",2,".",".",".",2,3,0,0,".","."]],[["."],["."],["."],[1]]],"numberofstrings":4,"notes":["G","D","A","E"],"capo":0,"stringnotes":["G2","D2","A1","E1"],"comments":["Stave 1:","Stave 2:","Stave 3:","Stave 4:","Stave 5:","Stave 6:","Stave 7:","Stave 8:","Stave 9:","Stave 10:"],"timing":[["W","W","W","W",null,"W","W","W","W","W","W","W","W",null,"W","W","W","W","W","W","W"],["W","W","W","W",null,"W","W","W","W","W","W","W","W",null,"W"],["W","W","W","W","W","W","W","W","W","W","W","W","W","W","W",null,"W","W","W","W"],["W","W","W","W","W","W","W","W","W","W","W","W","W","W","W",null,"W","W","W","W"],["W","W","W","W","W","W","W","W","W","W","W","W","W",null,"W","W","W"],[null,null,null,null,null,null,"W","W","W",null,"W","W",null,null,"W","W","W","W","W","W","W","W","W","W","W","W","W","W","W","W","W","W","W","W","W","W","W"],["W","W","W","W","W","W","W","W","W","W","W","W"],["W","W","W",null,"W","W","W","W","W","W","W","W",null,"W","W","W","W","W","W","W"],["W","W","W","W","W","W","W","W","W","W","W","W","W"],["W"]],"timingvisible":false,"tabcounter":1,"stave":9,"totalstaves":10,"instrument":"4bass","selectedtuning":"4bass","version":"13"}

Member for

1 month 3 weeks
Submitted by Jack Edward Lawther on Wed, 2020-10-07 11:09