Dig Up Concrete (Dyls Guitar)

01234567891011121314151617181920212223
E
B
G
D
A
E
B
0 1 2 3 4 5 6 7 8 9 10 11 12 13 14 15 16 17 18 19 20 21 22 23
(/) Slide Up  (\) Slide Down  (h) Hammer On  (p) Pull Off  (b) Bend (r) Release (v) Vibrato

Stave 1:

E|--------------------------------------------
B|--------------------------------------------
G|-----5--5--5--7--5--------------------------
D|-----------------------7--------7--7--5--4--
A|--------------------------------------------
E|--------------------------------------------

Stave 2:

E|-------------------------------------------------------------------------------
B|--7-----7--7-----7--5-----5--5-----5/11------11--11------11--7-----7--7--------
G|-----7--------7--------6--------6--------12----------12---------7--------7-----
D|-------------------------------------------------------------------------------
A|-------------------------------------------------------------------------------
E|-------------------------------------------------------------------------------

Stave 3:

E|----------------------------------------------------------------------------
B|--7-----7--7-----7--5-----5--5-----5/11------11--11------11--7-----7--7-----
G|-----7--------7--------6--------6--------12----------12---------7--------8--
D|----------------------------------------------------------------------------
A|----------------------------------------------------------------------------
E|----------------------------------------------------------------------------

Stave 4:

E|-----------------
B|-----------3-----
G|-----------------
D|-----------------
A|--3-----------3--
E|-----------------

Stave 5:

E|---------------------------------------------12--12------------------------------12--12--12--12-----14--14--14--14--14-----
B|----------12----------12----------12-------------------------12----------12-------------------------15--15--15--15--15-----
G|------12----------12----------12-------------------------12----------12------12--------------------------------------------
D|--11----------11----------11-------------11----------11----------11--------------------------------------------------------
A|---------------------------------------------------------------------------------------------------------------------------
E|---------------------------------------------------------------------------------------------------------------------------

Stave 6:

E|--14------------14--14--14--14--------16v-----------16v--
B|--15v-----------15--15--15--15---------------------------
G|---------------------------------------------------------
D|---------------------------------------------------------
A|---------------------------------------------------------
E|---------------------------------------------------------

							http://www.guitartabcreator.com
Chords

Instruments
{"strings":[[["_",".",".",".",".",".","_",".","_","_",".",".",".","."],["_",".",".",".",".",".","_",".","_","_",".",".",".","."],["_",5,5,5,7,5,"_",".","_","_",".",".",".","."],["_",".",".",".",".",".","_",7,"_","_",7,7,5,4],["_",".",".",".",".",".","_",".","_","_",".",".",".","."],["_",".",".",".",".",".","_",".","_","_",".",".",".","."]],[[".",".",".",".",".",".",".",".",".",".",".",".",".",".",".",".",".",".",".",".",".",".",".",".","_"],[7,".",7,7,".",7,5,".",5,5,".",5,"/",11,".",11,11,".",11,7,".",7,7,".","_"],[".",7,".",".",7,".",".",6,".",".",6,".",".",".",12,".",".",12,".",".",7,".",".",7,"_"],[".",".",".",".",".",".",".",".",".",".",".",".",".",".",".",".",".",".",".",".",".",".",".",".","_"],[".",".",".",".",".",".",".",".",".",".",".",".",".",".",".",".",".",".",".",".",".",".",".",".","_"],[".",".",".",".",".",".",".",".",".",".",".",".",".",".",".",".",".",".",".",".",".",".",".",".","_"]],[[".",".",".",".",".",".",".",".",".",".",".",".",".",".",".",".",".",".",".",".",".",".",".","."],[7,".",7,7,".",7,5,".",5,5,".",5,"/",11,".",11,11,".",11,7,".",7,7,"."],[".",7,".",".",7,".",".",6,".",".",6,".",".",".",12,".",".",12,".",".",7,".",".",8],[".",".",".",".",".",".",".",".",".",".",".",".",".",".",".",".",".",".",".",".",".",".",".","."],[".",".",".",".",".",".",".",".",".",".",".",".",".",".",".",".",".",".",".",".",".",".",".","."],[".",".",".",".",".",".",".",".",".",".",".",".",".",".",".",".",".",".",".",".",".",".",".","."]],[[".","_","_",".","."],[".","_","_",3,"."],[".","_","_",".","."],[".","_","_",".","."],[3,"_","_",".",3],[".","_","_",".","."]],[[".",".",".",".",".",".",".",".",".","_",".",12,12,".",".",".",".",".",".",".",12,12,12,12,"_",14,14,14,14,14,"_"],[".",".",12,".",".",12,".",".",12,"_",".",".",".",".",".",12,".",".",12,".",".",".",".",".","_",15,15,15,15,15,"_"],[".",12,".",".",12,".",".",12,".","_",".",".",".",".",12,".",".",12,".",12,".",".",".",".","_",".",".",".",".",".","_"],[11,".",".",11,".",".",11,".",".","_",11,".",".",11,".",".",11,".",".",".",".",".",".",".","_",".",".",".",".",".","_"],[".",".",".",".",".",".",".",".",".","_",".",".",".",".",".",".",".",".",".",".",".",".",".",".","_",".",".",".",".",".","_"],[".",".",".",".",".",".",".",".",".","_",".",".",".",".",".",".",".",".",".",".",".",".",".",".","_",".",".",".",".",".","_"]],[[14,".","_","_","_",14,14,14,14,"_","_",16,"v","_","_","_",16,"v"],[15,"v","_","_","_",15,15,15,15,"_","_",".",".","_","_","_",".","."],[".",".","_","_","_",".",".",".",".","_","_",".",".","_","_","_",".","."],[".",".","_","_","_",".",".",".",".","_","_",".",".","_","_","_",".","."],[".",".","_","_","_",".",".",".",".","_","_",".",".","_","_","_",".","."],[".",".","_","_","_",".",".",".",".","_","_",".",".","_","_","_",".","."]]],"numberofstrings":6,"notes":["E","B","G","D","A","E","B"],"capo":0,"stringnotes":["E4","B3","G3","D3","A2","E2"],"comments":["Stave 1:","Stave 2:","Stave 3:","Stave 4:","Stave 5:","Stave 6:"],"timing":[["W","W","W","W","W","W","W","W","W","W","W","W","W","W"],["W","W","W","W","W","W","W","W","W","W","W","W",null,"W","W","W","W","W","W","W","W","W","W","W","W"],["W","W","W","W","W","W","W","W","W","W","W","W",null,"W","W","W","W","W","W","W","W","W","W","W"],["W","W","W","W","W"],["W","W","W","W","W","W","W","W","W","W","W","W","W","W","W","W","W","W","W","W","W","W","W","W","W","W","W","W","W","W","W"],["W",null,"W","W","W","W","W","W","W","W","W","W",null,"W","W","W","W"]],"timingvisible":false,"tabcounter":18,"stave":5,"totalstaves":6,"instrument":"6guitar","selectedtuning":"6_standard","version":"13"}

Member for

1 year 1 month
Submitted by Jack Edward Lawther on Sun, 2021-05-02 06:01