Dig Up Concrete (Bass)

01234567891011121314151617181920212223
E
B
G
D
A
E
B
0 1 2 3 4 5 6 7 8 9 10 11 12 13 14 15 16 17 18 19 20 21 22 23
(/) Slide Up  (\) Slide Down  (h) Hammer On  (p) Pull Off  (b) Bend (r) Release (v) Vibrato

Stave 1:

G|------------------------------
D|--------------------4p0--2p0--
A|--3-----3--3--3--0------------
E|------------------------------

Stave 2:

G|----------------------------------------
D|--------10--10--10--10-----4p0--2p0-----
A|--3---------------------0---------------
E|----------------------------------------

Stave 3:

G|-----------------------------------------------------------------------------------------
D|---------------9--9--------------7--7--------------5--5-----5--------7-----7/9--7--4--5--
A|--14-----------------------------------------------------------5-------------------------
E|------7-----7--------7--5-----5--------5--3-----3----------------------------------------

							http://www.guitartabcreator.com
Chords

Instruments
{"strings":[[[".","_",".",".",".",".",".",".",".",".",".","."],[".","_",".",".",".",".",4,"p",0,2,"p",0],[3,"_",3,3,3,0,".",".",".",".",".","."],[".","_",".",".",".",".",".",".",".",".",".","."]],[[".","_",".",".",".",".",".",".",".",".",".",".",".","_"],[".","_",10,10,10,10,".",4,"p",0,2,"p",0,"_"],[3,"_",".",".",".",".",0,".",".",".",".",".",".","_"],[".","_",".",".",".",".",".",".",".",".",".",".",".","_"]],[[".",".","_",".",".",".",".",".","_",".",".",".",".",".","_",".",".",".","_",".",".","_",".","_",".",".",".",".",".","."],[".",".","_",".",9,9,".",".","_",".",7,7,".",".","_",".",5,5,"_",5,".","_",7,"_",7,"/",9,7,4,5],[14,".","_",".",".",".",".",".","_",".",".",".",".",".","_",".",".",".","_",".",5,"_",".","_",".",".",".",".",".","."],[".",7,"_",7,".",".",7,5,"_",5,".",".",5,3,"_",3,".",".","_",".",".","_",".","_",".",".",".",".",".","."]]],"numberofstrings":4,"notes":["G","D","A","E"],"capo":0,"stringnotes":["G2","D2","A1","E1"],"comments":["Stave 1:","Stave 2:","Stave 3:"],"timing":[[null,null,null,null,null,null,null,null,null,null,null,null],[null,null,null,null,null,null,null,null,null,null,null,null,null,null],[null,null,null,null,null,null,null,null,null,null,null,null,null,null,null,null,null,null,null,null,null,null,null,null,null,null,null,null,null,null]],"timingvisible":false,"tabcounter":30,"stave":2,"totalstaves":3,"instrument":"4bass","selectedtuning":"4bass","version":"13"}

Member for

1 year 1 month
Submitted by Jack Edward Lawther on Sun, 2021-05-02 06:16