Dig Bass 2

01234567891011121314151617181920212223
E
B
G
D
A
E
B
0 1 2 3 4 5 6 7 8 9 10 11 12 13 14 15 16 17 18 19 20 21 22 23
(/) Slide Up  (\) Slide Down  (h) Hammer On  (p) Pull Off  (b) Bend (r) Release (v) Vibrato

Stave 1:

G|------------------------------------------------------------------------------------
D|-----------9--9-----9-----------7--7-----------5--5--5h7p5--------------------9-----
A|------------------------------------------------------------5-----5--7--5--------9--
E|--7-----7--------7-----5-----5-----------5--3------------------------------7--------

Stave 2:

G|-------------------------------------------------------------
D|--------9--8--7----------------------------7--------------7--
A|--7--7-------------------7-----5--5--5--7-----6--6--6--7-----
E|-----------------5--7/9-----9--------------------------------

Stave 3:

G|----------------------------------------------------------------
D|--------9--8--7-------------------------------------------------
A|--7--7-------------------7-----5--5--5--5--4--3--------3--3--3--
E|-----------------5--7/9-----9-----------------------------------

							http://www.guitartabcreator.com
Chords

Instruments
{"strings":[[[".","_",".",".",".",".",".",".","_",".",".",".","_",".",".",".",".",".",".",".",".",".",".","_",".",".",".",".",".","."],[".","_",".",9,9,".",9,".","_",".",7,7,"_",".",".",5,5,5,"h",7,"p",5,".","_",".",".",".",".",9,"."],[".","_",".",".",".",".",".",".","_",".",".",".","_",".",".",".",".",".",".",".",".",".",5,"_",5,7,5,".",".",9],[7,"_",7,".",".",7,".",5,"_",5,".",".","_",5,3,".",".",".",".",".",".",".",".","_",".",".",".",7,".","."]],[[".",".",".",".",".",".",".",".",".",".",".",".",".",".",".",".",".",".",".",".","."],[".",".",9,8,7,".",".",".",".",".",".",".",".",".",".",7,".",".",".",".",7],[7,7,".",".",".",".",".",".",".",7,".",5,5,5,7,".",6,6,6,7,"."],[".",".",".",".",".",5,7,"/",9,".",9,".",".",".",".",".",".",".",".",".","."]],[[".",".",".",".",".",".",".",".",".",".",".",".",".",".",".",".",".","_","_",".",".","."],[".",".",9,8,7,".",".",".",".",".",".",".",".",".",".",".",".","_","_",".",".","."],[7,7,".",".",".",".",".",".",".",7,".",5,5,5,5,4,3,"_","_",3,3,3],[".",".",".",".",".",5,7,"/",9,".",9,".",".",".",".",".",".","_","_",".",".","."]]],"numberofstrings":4,"notes":["G","D","A","E"],"capo":0,"stringnotes":["G2","D2","A1","E1"],"comments":["Stave 1:","Stave 2:","Stave 3:"],"timing":[["W","W","W","W","W","W","W","W","W","W","W","W","W","W","W","W","W","W",null,"W",null,"W","W","W","W","W","W","W","W","W"],["W","W","W","W","W","W","W",null,"W","W","W","W","W","W","W","W","W","W","W","W","W"],["W","W","W","W","W","W","W",null,"W","W","W","W","W","W","W","W","W","W","W","W","W","W"]],"timingvisible":false,"tabcounter":22,"stave":2,"totalstaves":3,"instrument":"4bass","selectedtuning":"4bass","version":"13"}

Member for

1 year 1 month
Submitted by Jack Edward Lawther on Sun, 2021-05-02 10:29