Sound will begin in 5 seconds

Moving mountains by Skylar Grey

01234567891011121314151617181920212223
E
B
G
D
A
E
B
0 1 2 3 4 5 6 7 8 9 10 11 12 13 14 15 16 17 18 19 20 21 22 23
Song Science #1: How Pros Use 6 Chords to Write Hit Songs
(/) Slide Up  (\) Slide Down  (h) Hammer On  (p) Pull Off  (b) Bend (r) Release (v) Vibrato

Stave 1:

E|--------------------------------------------------------------------------
B|-----4-----9-----8-----3-----3-----1--------------------------------------
G|-----------------------------------------5-----1-----4-----5-----1-----4--
D|--------------------------------------------------------------------------
A|--3-----8-----6-----2-----1-----0-----------------------------------------
E|--------------------------------------4-----1-----3-----4-----1-----3-----

Stave 2:

E|--------------------------------------------------------------------------
B|-----4-----9-----7-----3-----3-----1-----------1-----------------1--------
G|-----------------------------------------5-----------4-----5-----------4--
D|--------------------------------------------------------------------------
A|--3-----8-----6-----2-----1-----0-----------------------------------------
E|--------------------------------------4-----1-----3-----4-----1-----3-----

Stave 3:

E|--------------------------------------------------------------------------------------
B|-----5-----8-----------9-----------4-----3-----5-----8-----------9-----------4-----3--
G|-----------------7-----------5-----------------------------7-----------5--------------
D|--------------------------------------------------------------------------------------
A|--3-----6-----------8-----------3-----1-----3-----6-----------8-----------3-----1-----
E|--------------6-----------4-----------------------------6-----------4-----------------

http://www.guitartabcreator.com
Guitar Tab Creator is intended to store guitar tab created through the tool. It currently does not support in-line text editing. Any text you place in here will be lost. If you need to comment on your tab, please use the "Tab Notes" section located below.