Sound will begin in 5 seconds

Vencedor

01234567891011121314151617181920212223
E
B
G
D
A
E
B
0 1 2 3 4 5 6 7 8 9 10 11 12 13 14 15 16 17 18 19 20 21 22 23
(/) Slide Up  (\) Slide Down  (h) Hammer On  (p) Pull Off  (b) Bend (r) Release (v) Vibrato

Bridge:

E|-----------------|------------
B|-----------------|------------
G|-----------------|--10--8--7--
D|--3--5--6--7--8--|------------
A|-----------------|------------
E|-----------------|------------



E|--------------------------------------|--
B|--------------------------------------|--
G|--5--7--8--8--7--7--5--3--1-----------|--
D|-----------------------------1--3--5--|--
A|--------------------------------------|--
E|--------------------------------------|--



E|--------------------------
B|--------9--8--6-----------
G|--5--8-----------8--7--5--
D|--------------------------
A|--------------------------
E|--------------------------

http://www.guitartabcreator.com
Guitar Tab Creator is intended to store guitar tab created through the tool. It currently does not support in-line text editing. Any text you place in here will be lost. If you need to comment on your tab, please use the "Tab Notes" section located below.