Chromatic X warming up

Chords

01234567891011121314151617181920212223
E
B
G
D
A
E
B
0 1 2 3 4 5 6 7 8 9 10 11 12 13 14 15 16 17 18 19 20 21 22 23
(/) Slide Up  (\) Slide Down  (h) Hammer On  (p) Pull Off  (b) Bend (r) Release (v) Vibrato

Stave 1:

E|------------------------------------|------------------------------------|--
B|------------------------------------|------------------------------------|--
G|------------------------------------|------------------------------------|--
D|------------------------------------|--------------3--4--5--6/7--6--5--4/|--
A|--------------1--2--3--4/5--4--3--2/|--3--4--5--6------------------------|--
E|--1--2--3--4------------------------|------------------------------------|--

Stave 2:

E|------------------------------------|----------------------------------------|--
B|------------------------------------|---------------7--8--9--10/11--10--9--8/|--
G|--------------5--6--7--8/9--8--7--6/|--7--8--9--10---------------------------|--
D|--5--6--7--8------------------------|----------------------------------------|--
A|------------------------------------|----------------------------------------|--
E|------------------------------------|----------------------------------------|--

Stave 3:

E|-----------------9--10--11--12/13--12--11--10--|--10--11--12--13-------------------------------|--
B|--9--10--11--12--------------------------------|------------------10--11--12--13\12--11--10--9\|--
G|-----------------------------------------------|-----------------------------------------------|--
D|-----------------------------------------------|-----------------------------------------------|--
A|-----------------------------------------------|-----------------------------------------------|--
E|-----------------------------------------------|-----------------------------------------------|--

Stave 4:

E|-----------------------------------------|------------------------------------|--
B|--8--9--10--11---------------------------|------------------------------------|--
G|----------------8--9--10--11\10--9--8--7\|--6--7--8--9------------------------|--
D|-----------------------------------------|--------------6--7--8--9\8--7--6--5\|--
A|-----------------------------------------|------------------------------------|--
E|-----------------------------------------|------------------------------------|--

Stave 5:

E|------------------------------------|-------------------------------------|------
B|------------------------------------|-------------------------------------|------
G|------------------------------------|-------------------------------------|------
D|--4--5--6--7------------------------|-------------------------------------|------
A|--------------4--5--6--7\6--5--4--3\|--2--3--4--5-------------------------|------
E|------------------------------------|--------------2--3--4--5\4--3--2--1--|--1v--

Stave 6:

E|-----------------------------------------------|-----------------------------------------|--
B|-----------------------------------------------|-----------------------------------------|--
G|-----------------------------------------------|-----------------------------------------|--
D|-----------------------------------------------|----------------8--9--10--11\10--9--8--7\|--
A|------------------10--11--12--13\12--11--10--9\|--8--9--10--11---------------------------|--
E|--10--11--12--13-------------------------------|-----------------------------------------|--

Stave 7:

E|------------------------------------|------------------------------------|--
B|------------------------------------|--------------4--5--6--7\6--5--4--3\|--
G|--------------6--7--8--9\8--7--6--5\|--4--5--6--7------------------------|--
D|--6--7--8--9------------------------|------------------------------------|--
A|------------------------------------|------------------------------------|--
E|------------------------------------|------------------------------------|--

Stave 8:

E|--------------2--3--4--5\4--3--2--1--|--1--2--3--4------------------------|--
B|--2--3--4--5-------------------------|--------------1--2--3--4/5--4--3--2/|--
G|-------------------------------------|------------------------------------|--
D|-------------------------------------|------------------------------------|--
A|-------------------------------------|------------------------------------|--
E|-------------------------------------|------------------------------------|--

Stave 9:

E|------------------------------------|------------------------------------|--
B|--3--4--5--6------------------------|------------------------------------|--
G|--------------3--4--5--6/7--6--5--4/|--5--6--7--8------------------------|--
D|------------------------------------|--------------5--6--7--8/9--8--7--6/|--
A|------------------------------------|------------------------------------|--
E|------------------------------------|------------------------------------|--

Stave 10:

E|----------------------------------------|-----------------------------------------------|-------
B|----------------------------------------|-----------------------------------------------|-------
G|----------------------------------------|-----------------------------------------------|-------
D|--7--8--9--10---------------------------|-----------------------------------------------|-------
A|---------------7--8--9--10/11--10--9--8/|--9--10--11--12--------------------------------|-------
E|----------------------------------------|-----------------9--10--11--12/13--12--11--10--|--10v--

							http://www.guitartabcreator.com
Instruments
{"strings":[[[".",".",".",".",".",".",".",".",".",".",".",".",".",".","|",".",".",".",".",".",".",".",".",".",".",".",".",".",".","|"],[".",".",".",".",".",".",".",".",".",".",".",".",".",".","|",".",".",".",".",".",".",".",".",".",".",".",".",".",".","|"],[".",".",".",".",".",".",".",".",".",".",".",".",".",".","|",".",".",".",".",".",".",".",".",".",".",".",".",".",".","|"],[".",".",".",".",".",".",".",".",".",".",".",".",".",".","|",".",".",".",".",3,4,5,6,"/",7,6,5,4,"/","|"],[".",".",".",".",1,2,3,4,"/",5,4,3,2,"/","|",3,4,5,6,".",".",".",".",".",".",".",".",".",".","|"],[1,2,3,4,".",".",".",".",".",".",".",".",".",".","|",".",".",".",".",".",".",".",".",".",".",".",".",".",".","|"]],[[".",".",".",".",".",".",".",".",".",".",".",".",".",".","|",".",".",".",".",".",".",".",".",".",".",".",".",".",".","|"],[".",".",".",".",".",".",".",".",".",".",".",".",".",".","|",".",".",".",".",7,8,9,10,"/",11,10,9,8,"/","|"],[".",".",".",".",5,6,7,8,"/",9,8,7,6,"/","|",7,8,9,10,".",".",".",".",".",".",".",".",".",".","|"],[5,6,7,8,".",".",".",".",".",".",".",".",".",".","|",".",".",".",".",".",".",".",".",".",".",".",".",".",".","|"],[".",".",".",".",".",".",".",".",".",".",".",".",".",".","|",".",".",".",".",".",".",".",".",".",".",".",".",".",".","|"],[".",".",".",".",".",".",".",".",".",".",".",".",".",".","|",".",".",".",".",".",".",".",".",".",".",".",".",".",".","|"]],[[".",".",".",".",9,10,11,12,"/",13,12,11,10,"|",10,11,12,13,".",".",".",".",".",".",".",".",".",".","|"],[9,10,11,12,".",".",".",".",".",".",".",".",".","|",".",".",".",".",10,11,12,13,"\\",12,11,10,9,"\\","|"],[".",".",".",".",".",".",".",".",".",".",".",".",".","|",".",".",".",".",".",".",".",".",".",".",".",".",".",".","|"],[".",".",".",".",".",".",".",".",".",".",".",".",".","|",".",".",".",".",".",".",".",".",".",".",".",".",".",".","|"],[".",".",".",".",".",".",".",".",".",".",".",".",".","|",".",".",".",".",".",".",".",".",".",".",".",".",".",".","|"],[".",".",".",".",".",".",".",".",".",".",".",".",".","|",".",".",".",".",".",".",".",".",".",".",".",".",".",".","|"]],[[".",".",".",".",".",".",".",".",".",".",".",".",".",".","|",".",".",".",".",".",".",".",".",".",".",".",".",".",".","|"],[8,9,10,11,".",".",".",".",".",".",".",".",".",".","|",".",".",".",".",".",".",".",".",".",".",".",".",".",".","|"],[".",".",".",".",8,9,10,11,"\\",10,9,8,7,"\\","|",6,7,8,9,".",".",".",".",".",".",".",".",".",".","|"],[".",".",".",".",".",".",".",".",".",".",".",".",".",".","|",".",".",".",".",6,7,8,9,"\\",8,7,6,5,"\\","|"],[".",".",".",".",".",".",".",".",".",".",".",".",".",".","|",".",".",".",".",".",".",".",".",".",".",".",".",".",".","|"],[".",".",".",".",".",".",".",".",".",".",".",".",".",".","|",".",".",".",".",".",".",".",".",".",".",".",".",".",".","|"]],[[".",".",".",".",".",".",".",".",".",".",".",".",".",".","|",".",".",".",".",".",".",".",".",".",".",".",".",".","|",".","."],[".",".",".",".",".",".",".",".",".",".",".",".",".",".","|",".",".",".",".",".",".",".",".",".",".",".",".",".","|",".","."],[".",".",".",".",".",".",".",".",".",".",".",".",".",".","|",".",".",".",".",".",".",".",".",".",".",".",".",".","|",".","."],[4,5,6,7,".",".",".",".",".",".",".",".",".",".","|",".",".",".",".",".",".",".",".",".",".",".",".",".","|",".","."],[".",".",".",".",4,5,6,7,"\\",6,5,4,3,"\\","|",2,3,4,5,".",".",".",".",".",".",".",".",".","|",".","."],[".",".",".",".",".",".",".",".",".",".",".",".",".",".","|",".",".",".",".",2,3,4,5,"\\",4,3,2,1,"|",1,"v"]],[[".",".",".",".",".",".",".",".",".",".",".",".",".",".","|",".",".",".",".",".",".",".",".",".",".",".",".",".",".","|"],[".",".",".",".",".",".",".",".",".",".",".",".",".",".","|",".",".",".",".",".",".",".",".",".",".",".",".",".",".","|"],[".",".",".",".",".",".",".",".",".",".",".",".",".",".","|",".",".",".",".",".",".",".",".",".",".",".",".",".",".","|"],[".",".",".",".",".",".",".",".",".",".",".",".",".",".","|",".",".",".",".",8,9,10,11,"\\",10,9,8,7,"\\","|"],[".",".",".",".",10,11,12,13,"\\",12,11,10,9,"\\","|",8,9,10,11,".",".",".",".",".",".",".",".",".",".","|"],[10,11,12,13,".",".",".",".",".",".",".",".",".",".","|",".",".",".",".",".",".",".",".",".",".",".",".",".",".","|"]],[[".",".",".",".",".",".",".",".",".",".",".",".",".",".","|",".",".",".",".",".",".",".",".",".",".",".",".",".",".","|"],[".",".",".",".",".",".",".",".",".",".",".",".",".",".","|",".",".",".",".",4,5,6,7,"\\",6,5,4,3,"\\","|"],[".",".",".",".",6,7,8,9,"\\",8,7,6,5,"\\","|",4,5,6,7,".",".",".",".",".",".",".",".",".",".","|"],[6,7,8,9,".",".",".",".",".",".",".",".",".",".","|",".",".",".",".",".",".",".",".",".",".",".",".",".",".","|"],[".",".",".",".",".",".",".",".",".",".",".",".",".",".","|",".",".",".",".",".",".",".",".",".",".",".",".",".",".","|"],[".",".",".",".",".",".",".",".",".",".",".",".",".",".","|",".",".",".",".",".",".",".",".",".",".",".",".",".",".","|"]],[[".",".",".",".",2,3,4,5,"\\",4,3,2,1,"|",1,2,3,4,".",".",".",".",".",".",".",".",".",".","|"],[2,3,4,5,".",".",".",".",".",".",".",".",".","|",".",".",".",".",1,2,3,4,"/",5,4,3,2,"/","|"],[".",".",".",".",".",".",".",".",".",".",".",".",".","|",".",".",".",".",".",".",".",".",".",".",".",".",".",".","|"],[".",".",".",".",".",".",".",".",".",".",".",".",".","|",".",".",".",".",".",".",".",".",".",".",".",".",".",".","|"],[".",".",".",".",".",".",".",".",".",".",".",".",".","|",".",".",".",".",".",".",".",".",".",".",".",".",".",".","|"],[".",".",".",".",".",".",".",".",".",".",".",".",".","|",".",".",".",".",".",".",".",".",".",".",".",".",".",".","|"]],[[".",".",".",".",".",".",".",".",".",".",".",".",".",".","|",".",".",".",".",".",".",".",".",".",".",".",".",".",".","|"],[3,4,5,6,".",".",".",".",".",".",".",".",".",".","|",".",".",".",".",".",".",".",".",".",".",".",".",".",".","|"],[".",".",".",".",3,4,5,6,"/",7,6,5,4,"/","|",5,6,7,8,".",".",".",".",".",".",".",".",".",".","|"],[".",".",".",".",".",".",".",".",".",".",".",".",".",".","|",".",".",".",".",5,6,7,8,"/",9,8,7,6,"/","|"],[".",".",".",".",".",".",".",".",".",".",".",".",".",".","|",".",".",".",".",".",".",".",".",".",".",".",".",".",".","|"],[".",".",".",".",".",".",".",".",".",".",".",".",".",".","|",".",".",".",".",".",".",".",".",".",".",".",".",".",".","|"]],[[".",".",".",".",".",".",".",".",".",".",".",".",".",".","|",".",".",".",".",".",".",".",".",".",".",".",".",".","|",".","."],[".",".",".",".",".",".",".",".",".",".",".",".",".",".","|",".",".",".",".",".",".",".",".",".",".",".",".",".","|",".","."],[".",".",".",".",".",".",".",".",".",".",".",".",".",".","|",".",".",".",".",".",".",".",".",".",".",".",".",".","|",".","."],[7,8,9,10,".",".",".",".",".",".",".",".",".",".","|",".",".",".",".",".",".",".",".",".",".",".",".",".","|",".","."],[".",".",".",".",7,8,9,10,"/",11,10,9,8,"/","|",9,10,11,12,".",".",".",".",".",".",".",".",".","|",".","."],[".",".",".",".",".",".",".",".",".",".",".",".",".",".","|",".",".",".",".",9,10,11,12,"/",13,12,11,10,"|",10,"v"]]],"numberofstrings":6,"notes":["E","B","G","D","A","E","B"],"capo":0,"stringnotes":["E1","B2","G3","D4","A5","E6"],"comments":["Stave 1:","Stave 2:","Stave 3:","Stave 4:","Stave 5:","Stave 6:","Stave 7:","Stave 8:","Stave 9:","Stave 10:"],"timing":[["W","W","W","W","W","W","W","W",null,"W","W","W","W",null,null,"W","W","W","W","W","W","W","W",null,"W","W","W","W"],["W","W","W","W","W","W","W","W",null,"W","W","W","W",null,null,"W","W","W","W","W","W","W","W",null,"W","W","W","W"],["W","W","W","W","W","W","W","W",null,"W","W","W","W",null,"W","W","W","W","W","W","W","W",null,"W","W","W","W"],["W","W","W","W","W","W","W","W",null,"W","W","W","W",null,null,"W","W","W","W","W","W","W","W",null,"W","W","W","W"],["W","W","W","W","W","W","W","W",null,"W","W","W","W",null,null,"W","W","W","W","W","W","W","W",null,"W","W","W","W",null,"W"],["W","W","W","W","W","W","W","W",null,"W","W","W","W",null,null,"W","W","W","W","W","W","W","W",null,"W","W","W","W"],["W","W","W","W","W","W","W","W",null,"W","W","W","W",null,null,"W","W","W","W","W","W","W","W",null,"W","W","W","W"],["W","W","W","W","W","W","W","W",null,"W","W","W","W",null,"W","W","W","W","W","W","W","W",null,"W","W","W","W"],["W","W","W","W","W","W","W","W",null,"W","W","W","W",null,null,"W","W","W","W","W","W","W","W",null,"W","W","W","W"],["W","W","W","W","W","W","W","W",null,"W","W","W","W",null,null,"W","W","W","W","W","W","W","W",null,"W","W","W","W",null,"W"]],"timingvisible":false,"tabcounter":31,"stave":9,"totalstaves":10,"instrument":"6guitar","selectedtuning":"6_standard","version":"13"}
Submitted by ivanrecordcastle on Thu, 2020-05-28 18:09