The Last of Us 2 Main Theme

Chords

01234567891011121314151617181920212223
E
B
G
D
A
E
B
0 1 2 3 4 5 6 7 8 9 10 11 12 13 14 15 16 17 18 19 20 21 22 23
(/) Slide Up  (\) Slide Down  (h) Hammer On  (p) Pull Off  (b) Bend (r) Release (v) Vibrato

Main Riff Intro 1:

E|--------------------------------------
B|-----1--------3--------1-----1--------
G|--------2--------4--------2-----2-----
D|-----------------------------------2--
A|--0--------0--------0-----------------
E|--------------------------------------

Main Riff Intro 2:

E|-----------------------------------
B|-----1--------3--------5-----5-----
G|--------2--------4--------5-----5--
D|-----------------------------------
A|--0--------0--------0--------------
E|-----------------------------------

Main Riff Intro 3:

E|-----------------------------------------------
B|-----1--------3--------1-----1--------------1--
G|--------2--------4--------2-----2--------2-----
D|--------------------------------------2--------
A|--0--------0--------0--------------------------
E|-----------------------------------------------

Main Riff Intro 4:

E|-----------------------------------------0-----------
B|-----4-----3--------------------------1-----1--------
G|--------------5--------0--------2--------------2-----
D|-----------------2-----------2--------------------2--
A|--2-----------------------0--------------------------
E|-----------------------------------------------------

Chorus 1:

E|-----------------------------------------
B|-----------8-----8--8--8-----8--7-----7--
G|--------5-----------------------------7--
D|-----7-----------------------------------
A|--0--------------------------------0-----
E|-----------------------------------------

Chorus 2:

E|-----------5-----------------------------
B|--------6-----------6--6--6-----5-----5--
G|-----7-----------7--------------5-----5--
D|-----------------------------------------
A|--0--------------------------------0-----
E|-----------------------------------------

Chorus 3:

E|--------------------------------------5-----------------
B|-----------8-----------8-----------8-----------7-----7--
G|--------5-----------5-----------5--------------7-----7--
D|-----7-----------7-----------7--------------------------
A|--7-----------7-----------7-----------------0-----0-----
E|--------------------------------------------------------

Chorus 4:

E|-----------5-----------------------------
B|--------6-----------6--6--6-----5-----5--
G|-----7-----------7--------------5-----5--
D|-----------------------------------------
A|--0--------------------------------0-----
E|-----------------------------------------

Bridge:

E|----------------------------------------------------0--
B|-----------3-----3/5\3p1-----1----------------------1--
G|--------0--------------------2-----2p0-----2-----2--2--
D|-----0-----------------------3-------------3--------2--
A|----------------------------------------------------0--
E|--3-----------------------1-------------1--------------

Solo 1:

E|------------------------------------
B|-----1-----4-----3--1h3p1-----1-----
G|--2-----2------------------2-----2--
D|------------------------------------
A|------------------------------------
E|------------------------------------

Solo 2:

E|---------------------------------
B|-----1-----4-----3--1h3p1--------
G|--2-----2------------------2--2--
D|---------------------------------
A|---------------------------------
E|---------------------------------

Solo 3:

E|-----------------------------------
B|-----1-----4-----3/4\3p1-----1-----
G|--2-----2-----------------2-----2--
D|-----------------------------------
A|-----------------------------------
E|-----------------------------------

Solo 4:

E|------------------------------------------------
B|------------------------------------------------
G|--2--2/4\2--------------0--------0--2--------2--
D|---------------2-----2--------2-----------2-----
A|------------------2--------------------0--------
E|------------------------------------------------

Main Riff Outro 1:

E|--------------------------------------
B|-----1--------3--------1-----1--------
G|--------2--------4--------2-----2-----
D|-----------------------------------2--
A|--0--------0--------0-----------------
E|--------------------------------------

Main Riff Outro 2:

E|-----------------------------------
B|-----1--------3--------5-----5-----
G|--------2--------4--------5-----5--
D|-----------------------------------
A|--0--------0--------0--------------
E|-----------------------------------

Main Riff Outro 3:

E|--------------------------------------
B|-----1--------3--------1-----1--------
G|--------2--------4--------2-----2-----
D|-----------------------------------2--
A|--0--------0--------0-----------------
E|--------------------------------------

Main Riff Outro 4:

E|--------------------------------------------
B|--------1-----4-----3-----------------------
G|-----2-----------------5--------0--------2--
D|--------------------------2-----------2-----
A|--0--------2-----------------------0--------
E|--------------------------------------------

Main Riff Outro 5:

E|--------------------------------------------
B|--------1-----4-----3-----------------------
G|-----2-----------------5--------0--------2--
D|--------------------------2-----------2-----
A|--0--------2-----------------------0--------
E|--------------------------------------------

Main Riff Outro 6:

E|-----------------------------------------
B|--------1-----4--3-----------------------
G|-----2--------------5--------0--------2--
D|-----------------------2-----------2-----
A|--0--------2--------------------0--------
E|-----------------------------------------

							http://www.guitartabcreator.com
Tab Notes
Repeat Main Riff Intro x2 Repeat Solo 4 x2
Instruments
{"strings":[[[".",".",".",".",".",".",".",".",".",".",".","."],[".",1,".",".",3,".",".",1,".",1,".","."],[".",".",2,".",".",4,".",".",2,".",2,"."],[".",".",".",".",".",".",".",".",".",".",".",2],[0,".",".",0,".",".",0,".",".",".",".","."],[".",".",".",".",".",".",".",".",".",".",".","."]],[[".",".",".",".",".",".",".",".",".",".","."],[".",1,".",".",3,".",".",5,".",5,"."],[".",".",2,".",".",4,".",".",5,".",5],[".",".",".",".",".",".",".",".",".",".","."],[0,".",".",0,".",".",0,".",".",".","."],[".",".",".",".",".",".",".",".",".",".","."]],[[".",".",".",".",".",".",".",".",".",".",".","_",".",".","."],[".",1,".",".",3,".",".",1,".",1,".","_",".",".",1],[".",".",2,".",".",4,".",".",2,".",2,"_",".",2,"."],[".",".",".",".",".",".",".",".",".",".",".","_",2,".","."],[0,".",".",0,".",".",0,".",".",".",".","_",".",".","."],[".",".",".",".",".",".",".",".",".",".",".","_",".",".","."]],[[".",".","_",".",".",".","_",".",".",".",".","_",".",0,".",".","."],[".",4,"_",3,".",".","_",".",".",".",".","_",1,".",1,".","."],[".",".","_",".",5,".","_",0,".",".",2,"_",".",".",".",2,"."],[".",".","_",".",".",2,"_",".",".",2,".","_",".",".",".",".",2],[2,".","_",".",".",".","_",".",0,".",".","_",".",".",".",".","."],[".",".","_",".",".",".","_",".",".",".",".","_",".",".",".",".","."]],[[".",".",".",".","_",".",".",".","_",".",".",".","."],[".",".",".",8,"_",8,8,8,"_",8,7,".",7],[".",".",5,".","_",".",".",".","_",".",".",".",7],[".",7,".",".","_",".",".",".","_",".",".",".","."],[0,".",".",".","_",".",".",".","_",".",".",0,"."],[".",".",".",".","_",".",".",".","_",".",".",".","."]],[[".",".",".",5,"_",".",".",".",".","_",".",".","."],[".",".",6,".","_",".",6,6,6,"_",5,".",5],[".",7,".",".","_",7,".",".",".","_",5,".",5],[".",".",".",".","_",".",".",".",".","_",".",".","."],[0,".",".",".","_",".",".",".",".","_",".",0,"."],[".",".",".",".","_",".",".",".",".","_",".",".","."]],[[".",".",".",".",".",".",".",".",".",".",".",".",5,"_",".",".",".","."],[".",".",".",8,".",".",".",8,".",".",".",8,".","_",".",7,".",7],[".",".",5,".",".",".",5,".",".",".",5,".",".","_",".",7,".",7],[".",7,".",".",".",7,".",".",".",7,".",".",".","_",".",".",".","."],[7,".",".",".",7,".",".",".",7,".",".",".",".","_",0,".",0,"."],[".",".",".",".",".",".",".",".",".",".",".",".",".","_",".",".",".","."]],[[".",".",".",5,"_",".",".",".",".","_",".",".","."],[".",".",6,".","_",".",6,6,6,"_",5,".",5],[".",7,".",".","_",7,".",".",".","_",5,".",5],[".",".",".",".","_",".",".",".",".","_",".",".","."],[0,".",".",".","_",".",".",".",".","_",".",0,"."],[".",".",".",".","_",".",".",".",".","_",".",".","."]],[[".",".",".",".","_",".",".",".",".",".",".",".",".",".","_",".",".",".",".",".","_",".",0],[".",".",".",3,"_",3,"/",5,"\\",3,"p",1,".",1,"_",".",".",".",".",".","_",".",1],[".",".",0,".","_",".",".",".",".",".",".",".",".",2,"_",2,"p",0,".",2,"_",2,2],[".",0,".",".","_",".",".",".",".",".",".",".",".",3,"_",".",".",".",".",3,"_",".",2],[".",".",".",".","_",".",".",".",".",".",".",".",".",".","_",".",".",".",".",".","_",".",0],[3,".",".",".","_",".",".",".",".",".",".",".",1,".","_",".",".",".",1,".","_",".","."]],[[".",".",".",".","_",".",".",".",".",".",".",".",".","."],[".",1,".",4,"_",3,1,"h",3,"p",1,".",1,"."],[2,".",2,".","_",".",".",".",".",".",".",2,".",2],[".",".",".",".","_",".",".",".",".",".",".",".",".","."],[".",".",".",".","_",".",".",".",".",".",".",".",".","."],[".",".",".",".","_",".",".",".",".",".",".",".",".","."]],[[".",".",".",".","_",".",".",".",".",".",".",".","."],[".",1,".",4,"_",3,1,"h",3,"p",1,".","."],[2,".",2,".","_",".",".",".",".",".",".",2,2],[".",".",".",".","_",".",".",".",".",".",".",".","."],[".",".",".",".","_",".",".",".",".",".",".",".","."],[".",".",".",".","_",".",".",".",".",".",".",".","."]],[[".",".",".",".","_",".",".",".",".",".",".",".",".",".","."],[".",1,".",4,"_",3,"/",4,"\\",3,"p",1,".",1,"."],[2,".",2,".","_",".",".",".",".",".",".",".",2,".",2],[".",".",".",".","_",".",".",".",".",".",".",".",".",".","."],[".",".",".",".","_",".",".",".",".",".",".",".",".",".","."],[".",".",".",".","_",".",".",".",".",".",".",".",".",".","."]],[[".",".",".",".",".",".","_",".",".",".",".","_",".",".",".",".",".","."],[".",".",".",".",".",".","_",".",".",".",".","_",".",".",".",".",".","."],[2,2,"/",4,"\\",2,"_",".",".",".",0,"_",".",0,2,".",".",2],[".",".",".",".",".",".","_",2,".",2,".","_",2,".",".",".",2,"."],[".",".",".",".",".",".","_",".",2,".",".","_",".",".",".",0,".","."],[".",".",".",".",".",".","_",".",".",".",".","_",".",".",".",".",".","."]],[[".",".",".",".",".",".",".",".",".",".",".","."],[".",1,".",".",3,".",".",1,".",1,".","."],[".",".",2,".",".",4,".",".",2,".",2,"."],[".",".",".",".",".",".",".",".",".",".",".",2],[0,".",".",0,".",".",0,".",".",".",".","."],[".",".",".",".",".",".",".",".",".",".",".","."]],[[".",".",".",".",".",".",".",".",".",".","."],[".",1,".",".",3,".",".",5,".",5,"."],[".",".",2,".",".",4,".",".",5,".",5],[".",".",".",".",".",".",".",".",".",".","."],[0,".",".",0,".",".",0,".",".",".","."],[".",".",".",".",".",".",".",".",".",".","."]],[[".",".",".",".",".",".",".",".",".",".",".","."],[".",1,".",".",3,".",".",1,".",1,".","."],[".",".",2,".",".",4,".",".",2,".",2,"."],[".",".",".",".",".",".",".",".",".",".",".",2],[0,".",".",0,".",".",0,".",".",".",".","."],[".",".",".",".",".",".",".",".",".",".",".","."]],[[".",".",".",".",".","_",".",".",".","_",".",".",".","."],[".",".",1,".",4,"_",3,".",".","_",".",".",".","."],[".",2,".",".",".","_",".",5,".","_",0,".",".",2],[".",".",".",".",".","_",".",".",2,"_",".",".",2,"."],[0,".",".",2,".","_",".",".",".","_",".",0,".","."],[".",".",".",".",".","_",".",".",".","_",".",".",".","."]],[[".",".",".",".",".","_",".",".",".","_",".",".",".","."],[".",".",1,".",4,"_",3,".",".","_",".",".",".","."],[".",2,".",".",".","_",".",5,".","_",0,".",".",2],[".",".",".",".",".","_",".",".",2,"_",".",".",2,"."],[0,".",".",2,".","_",".",".",".","_",".",0,".","."],[".",".",".",".",".","_",".",".",".","_",".",".",".","."]],[[".",".",".",".",".",".",".",".","_",".",".",".","."],[".",".",1,".",4,3,".",".","_",".",".",".","."],[".",2,".",".",".",".",5,".","_",0,".",".",2],[".",".",".",".",".",".",".",2,"_",".",".",2,"."],[0,".",".",2,".",".",".",".","_",".",0,".","."],[".",".",".",".",".",".",".",".","_",".",".",".","."]]],"numberofstrings":6,"notes":["E","B","G","D","A","E","B"],"capo":0,"stringnotes":["E4","B3","G3","D3","A2","E2"],"comments":["Main Riff Intro 1:","Main Riff Intro 2:","Main Riff Intro 3:","Main Riff Intro 4:","Chorus 1:","Chorus 2:","Chorus 3:","Chorus 4:","Bridge:","Solo 1:","Solo 2:","Solo 3:","Solo 4:","Main Riff Outro 1:","Main Riff Outro 2:","Main Riff Outro 3:","Main Riff Outro 4:","Main Riff Outro 5:","Main Riff Outro 6:"],"timing":[[null,null,null,null,null,null,null,null,null,null,null,null],[null,null,null,null,null,null,null,null,null,null,null,"W","E","E"],["W","W","W","W","W","W","W","W","W","W","W","W","W","W","W"],["W","W",null,"W","W","W",null,"W","W","W","W","W","W","W","W","W","W","W"],["W","W","W","W","W","W","W","W",null,"W","W","W","W"],["W","W","W","W",null,"W","W","W","W","W","W","W","W"],["W","W","W","W","W","W","W","W","W","W","W","W","W",null,"W","W","W","W","W","W"],["W","W","W","W",null,"W","W","W","W",null,"W","W","W"],["W","W","W","W",null,"W",null,"W",null,"W","W","W","W","W",null,"W",null,"W","W","W",null,"W","W"],["W","W","W","W",null,"W","W",null,"W",null,"W","W","W","W"],["W","W","W","W",null,"W","W",null,"W",null,"W","W","W"],["W","W","W","W",null,"W",null,"W",null,"W","W","W","W","W","W"],["W","W",null,"W",null,"W","W","W","W","W","W",null,"W","W","W","W","W","W"],["W","W","W","W","W","W","W","W","W","W","W","W"],["W","W","W","W","W","W","W","W","W","W","W"],["W","W","W","W","W","W","W","W","W","W","W","W"],["W","W","W","W","W",null,"W","W","W",null,"W","W","W","W"],["W","W","W","W","W","W","W","W","W",null,"W","W","W","W"],["W","W","W","W","W","W","W","W",null,"W","W","W","W"]],"timingvisible":false,"tabcounter":22,"stave":8,"totalstaves":19,"instrument":"6guitar","selectedtuning":"6_standard","version":"13"}

Member for

1 week 5 days
Submitted by itay1669 on Tue, 2020-06-30 04:24