Sound will begin in 5 seconds

vv

01234567891011121314151617181920212223
E
B
G
D
A
E
B
0 1 2 3 4 5 6 7 8 9 10 11 12 13 14 15 16 17 18 19 20 21 22 23
Learn to Play Guitar Online
(/) Slide Up  (\) Slide Down  (h) Hammer On  (p) Pull Off  (b) Bend (r) Release (v) Vibrato

Stave 1:

A|--5-----------1--0--------|--5-----------1--0--------|--5-----------1--0--------|-----------------------
C|-----3-----3--------------|-----3-----3--------------|-----3-----3--------------|-----------------------
A|--------------------------|--------------------------|-----------------------3--|--2-----2-----3-----3--
G|--------------------------|--------------------------|--------------------------|-----------------------

Stave 2:

A|--5-----------1--0--------|--5-----------1--0--------|--5-----------1--0--------|-----------------------
C|-----3-----3--------------|-----3-----3--------------|-----3-----3--------------|-----------------------
A|--------------------------|--------------------------|-----------------------3--|--2-----2-----3-----3--
G|--------------------------|--------------------------|--------------------------|-----------------------

Stave 3:

A|--0-----1-----------0-----|--0-----1-----------0-----|--0-----1-----------0--1--|--5--3--3--0--1--0-----0-----
C|-----3-----3-----3-----3--|-----3-----3-----3-----3--|-----3-----3-----3--------|--------------------3-----3--
A|--------------------------|--------------------------|--------------------------|-----------------------------
G|--------------------------|--------------------------|--------------------------|-----------------------------

Stave 4:

A|--0-----1-----------0-----|--0-----1-----------0-----|--0-----1-----------0--1--|--5--3--3--0--1--0-----0-----
C|-----3-----3-----3-----3--|-----3-----3-----3-----3--|-----3-----3-----3--------|--------------------3-----3--
A|--------------------------|--------------------------|--------------------------|-----------------------------
G|--------------------------|--------------------------|--------------------------|-----------------------------

Stave 5:

A|-----------1--------0--1--|--------------|-----------0--------0--3--|--5--
C|-----------------3--------|--------------|-----------------3--------|-----
A|-----2--3-----------------|--------------|-----2--3-----------------|-----
G|--0-----------------------|--------------|--0-----------------------|-----

http://www.guitartabcreator.com
Guitar Tab Creator is intended to store guitar tab created through the tool. It currently does not support in-line text editing. Any text you place in here will be lost. If you need to comment on your tab, please use the "Tab Notes" section located below.