Sound will begin in 5 seconds

MY PRIDE

01234567891011121314151617181920212223
E
B
G
D
A
E
B
0 1 2 3 4 5 6 7 8 9 10 11 12 13 14 15 16 17 18 19 20 21 22 23
(/) Slide Up  (\) Slide Down  (h) Hammer On  (p) Pull Off  (b) Bend (r) Release (v) Vibrato

Stave 1:

A|--------------|--------------|--------------|--------------
E|--0-----0--1--|--3-----------|--0--0--0--1--|--3--------0--
C|--------------|--------0--2--|--------------|--------2-----
G|--------------|--------------|--------------|--------------

Stave 2:

A|--------------|--------------|--------------|--------------
E|--1-----1--0--|--------1--0--|--1-----------|--------------
C|--------------|--0-----------|-----------0--|--2-----0--2--
G|--------------|--------------|--------------|--------------

Stave 3:

A|--------------|--------0--2--|--3--3--------|--------------
E|--0-----0--1--|--3-----------|--------0--1--|--3--------0--
C|--------------|--------------|--------------|--------2-----
G|--------------|--------------|--------------|--------------

Stave 4:

A|-----------3--|--3-----------|-----------5--|--5-----3--2--
E|--1--0--1-----|-----------0--|--1--0--1-----|--------------
C|--------------|--------2-----|--------------|--------------
G|--------------|--------------|--------------|--------------

Stave 5:

A|--3--------5--|--7--5--3--2--|--3--------3--|--3-----------
E|--------------|--------------|--------------|--------------
C|--------------|--------------|--------------|-----------0--
G|--------------|--------------|--------------|-----0--0-----

Stave 6:

A|--0--------0--|--------------|--------------|--------3--2--
E|--------------|-----------0--|-----------0--|--1--3--------
C|--------------|-----0--0-----|--2-----------|--------------
G|--------------|--0-----------|--------------|--------------

Stave 7:

A|--3--------5--|--7--5--3--2--|--3--------3--|--3-----------
E|--------------|--------------|--------------|--------------
C|--------------|--------------|--------------|-----------0--
G|--------------|--------------|--------------|-----0--0-----

Stave 8:

A|-----------0--|--------3--2--|--3-----------|--------------
E|--------------|--------------|--------------|--------------
C|--------------|--------------|--------------|--------------
G|--------------|--0--0--------|--------------|--------------

http://www.guitartabcreator.com
Guitar Tab Creator is intended to store guitar tab created through the tool. It currently does not support in-line text editing. Any text you place in here will be lost. If you need to comment on your tab, please use the "Tab Notes" section located below.