idk

Chords
01234567891011121314151617181920212223
E
B
G
D
A
E
B
0 1 2 3 4 5 6 7 8 9 10 11 12 13 14 15 16 17 18 19 20 21 22 23
[code]
(/) Slide Up  (\) Slide Down  (h) Hammer On  (p) Pull Off  (b) Bend (r) Release (v) Vibrato 
(*) Palm Mute (~) Let Ring    (tr) Trill Pick

E|-----------------------------------------------------------------------------------------|
B|-----------------------------------------------------------------------------------------|
G|--10------9-------10------12------14------10------9-------10------12------9-------7------|
D|--X-(x5)--X-(x5)--X-(x5)--X-(x2)--X-(X3)--X-(x5)--X-(x5)--X-(x5)--X-(x2)--X-(x2)--X--0~--|
A|--8-------7-------8-------10------12------8-------7-------8-------10------7-------5--0~--|
D|-------------------------------------------------------------------------------------0~--|

E|-------------------------------------------------------------
B|-------------------------------------------------------------
G|-------------------------------------------------------------
D|--7---8---5---7---7---8---5---7------------------------------
A|--------------------------------5---3---7---8---11---8--10--8
D|-------------------------------------------------------------
    tr tr   tr tr   tr tr   tr tr tr tr   tr tr   tr   tr tr tr 
[url]http://www.guitartabcreator.com[/url]
genre

Member for

8 years 9 months
Submitted by inukas on Wed, 2011-08-17 17:41