Sound will begin in 5 seconds

Ballad of El Goodo

Chords
01234567891011121314151617181920212223
E
B
G
D
A
E
B
0 1 2 3 4 5 6 7 8 9 10 11 12 13 14 15 16 17 18 19 20 21 22 23
Song Science #1: How Pros Use 6 Chords to Write Hit Songs
(/) Slide Up  (\) Slide Down  (h) Hammer On  (p) Pull Off  (b) Bend (r) Release (v) Vibrato

Capo Fret 6

(W|WW) Whole (H|HH) Half (Q|QQ) Quarter (E|EE) 8th (S|SS) 16th (T|TT) 32nd (X|XX) 64th

Stave 1:
t: Q Q Q Q Q Q Q Q Q Q Q Q Q E E E E E E E E E E H Q E E E E E E E E E E H
E|--3-----2-----3-----2-----3-----2-----3---------------------------------3---------------------------------
B|-----3-----3-----0-----3-----1-----1--3-----3----------3----------3-----3-----3----------3----------3-----
G|-----------------------------------------0----------0----------0-----------0----------0----------0--------
D|--------0-----------------------0-------------------------0h2--------0----------------------0h2--------0--
A|--------------------2-----0--------------------0h2-------------------------------0h2----------------------
E|--3-----------0-----------------------3---------------------------------3---------------------------------

Stave 2:
t: H H H H H H H H H H H H H H H H H H
E|--3--3--3--3--3--3--2--2--2--2--3--3--3--3--6--6--6--6--
B|--3--3--1--1--1--1--3--3--3--3--0--0--1--1--4--4--4--4--
G|--0--0--0--0--2--2--2--2--4--4--0--0--0--0--0--0--0--0--
D|--0--0--2--2--2--2--0--0--4--4--2--2--2--2--5--5--5--5--
A|--2--2--3--3--0--0--------2--2--2--2--3--3--6--6--6--6--
E|--3--3--------------------------0--0--------------------

Stave 3:
t: H H H H H H H H H H H H H H H H H H
E|--3--3--3--3--3--3--2--2--2--2--3--3--3--3--3--3--3--3--
B|--3--3--1--1--1--1--3--3--3--3--0--0--1--1--1--1--1--1--
G|--0--0--0--0--2--2--2--2--4--4--0--0--0--0--2--2--2--2--
D|--0--0--2--2--2--2--0--0--4--4--2--2--2--2--3--3--3--3--
A|--2--2--3--3--0--0--------2--2--2--2--3--3--------------
E|--3--3--------------------------0--0--------------------

http://www.guitartabcreator.com
Guitar Tab Creator is intended to store guitar tab created through the tool. It currently does not support in-line text editing. Any text you place in here will be lost. If you need to comment on your tab, please use the "Tab Notes" section located below.