Touch of Grey Solo - Grateful Dead

01234567891011121314151617181920212223
E
B
G
D
A
E
B
0 1 2 3 4 5 6 7 8 9 10 11 12 13 14 15 16 17 18 19 20 21 22 23
(/) Slide Up  (\) Slide Down  (h) Hammer On  (p) Pull Off  (b) Bend (r) Release (v) Vibrato

Stave 1:

E|----------------------|----------------|------------------|---------|---------------------|-------------11-|-------12-12\
B|----12----------12----|-11-------12-12-|----------------9-|-10-10\9-|---------------------|-11----12-14----|-------------
G|-11----11----11----11-|----11----------|---------9----9---|---------|------11----11h13p11-|----11----------|-12/13-------
D|----------13----------|-------11-------|-6/11-11---11-----|---------|-9/11----11----------|----------------|-------------
A|----------------------|----------------|------------------|---------|---------------------|----------------|-------------
E|----------------------|----------------|------------------|---------|---------------------|----------------|-------------

Stave 2:

E|-11-12-|-14p13p12\11-12-11----------11-|-11-------11----|----------------------------------|--------------------------14---
B|-------|-------------------14p12-14----|----14-12----14-|-11----11-14-12---------9-----9---|-10-10-12-9---------11---------
G|-------|-------------------------------|----------------|----11--------------------9-9---9-|-----------------11----11------
D|-------|-------------------------------|----------------|----------------13\11p9-----------|------------9/11---------------
A|-------|-------------------------------|----------------|----------------------------------|-------------------------------
E|-------|-------------------------------|----------------|----------------------------------|-------------------------------

Stave 3:

E|-11-------|-------------11-------12-------14-------16----16-|-------------------|-------------11-|-12v-|-10/12-11-------------|-
B|----12----|-14-11-12-14-------------------------------------|----11----11-12-14-|-12p11-12-14----|-----|----------14v-12v-11v-|-
G|-------11-|----------------12/13----13/14----14/16----16----|-11----11----------|----------------|-----|----------------------|-
D|----------|-------------------------------------------------|-------------------|----------------|-----|----------------------|-
A|----------|-------------------------------------------------|-------------------|----------------|-----|----------------------|-
E|----------|-------------------------------------------------|-------------------|----------------|-----|----------------------|-

Stave 4:

E|--------------------|----------11----|-12v----14-|-12-11-------|--------------|-------------11----|--------------|----------------
B|----11-12----11-12v-|-11-12-14-------|-----------|-------14-12-|-11v-11-12-14-|-12p11h12-14-------|-14----12-9---|-11-------11h12-
G|-11-------11--------|-------------13-|-----13----|-------------|--------------|----------------14-|----14------9-|----11----------
D|--------------------|----------------|-----------|-------------|--------------|-------------------|--------------|-------11-------
A|--------------------|----------------|-----------|-------------|--------------|-------------------|--------------|----------------
E|--------------------|----------------|-----------|-------------|--------------|-------------------|--------------|----------------

Stave 5:

E|----------|-------------|-----------------|-------------------|----------------
B|-11-------|---9-----9---|-10-10-10p9------|----11-------11----|-12----12-12p11-
G|----13-11-|-9---9-9---9-|-----------------|-11----11-11----11-|----11----------
D|----------|-------------|------------9/11-|-------------------|----------------
A|----------|-------------|-----------------|-------------------|----------------
E|----------|-------------|-----------------|-------------------|----------------

							http://www.guitartabcreator.com
Chords

Instruments
{"strings":[[[".",".",".",".",".",".",".","|",".",".",".",".",".","|",".",".",".",".",".",".",".",".","|",".",".",".",".","|",".",".",".",".",".",".",".",".",".",".","|",".",".",".",".",11,"|",".",".",".",12,12,"\\"],[".",12,".",".",".",12,".","|",11,".",".",12,12,"|",".",".",".",".",".",".",".",9,"|",10,10,"\\",9,"|",".",".",".",".",".",".",".",".",".",".","|",11,".",12,14,".","|",".",".",".",".",".","."],[11,".",11,".",11,".",11,"|",".",11,".",".",".","|",".",".",".",".",9,".",9,".","|",".",".",".",".","|",".",".",".",11,".",11,"h",13,"p",11,"|",".",11,".",".",".","|",12,"/",13,".",".","."],[".",".",".",13,".",".",".","|",".",".",11,".",".","|",6,"/",11,11,".",11,".",".","|",".",".",".",".","|",9,"/",11,".",11,".",".",".",".",".","|",".",".",".",".",".","|",".",".",".",".",".","."],[".",".",".",".",".",".",".","|",".",".",".",".",".","|",".",".",".",".",".",".",".",".","|",".",".",".",".","|",".",".",".",".",".",".",".",".",".",".","|",".",".",".",".",".","|",".",".",".",".",".","."],[".",".",".",".",".",".",".","|",".",".",".",".",".","|",".",".",".",".",".",".",".",".","|",".",".",".",".","|",".",".",".",".",".",".",".",".",".",".","|",".",".",".",".",".","|",".",".",".",".",".","."]],[[11,12,"|",14,"p",13,"p",12,"\\",11,12,11,".",".",".",".",11,"|",11,".",".",11,".","|",".",".",".",".",".",".",".",".",".",".",".",".",".",".",".","|",".",".",".",".",".",".",".",".",".",".",14,"."],[".",".","|",".",".",".",".",".",".",".",".",".",14,"p",12,14,".","|",".",14,12,".",14,"|",11,".",11,14,12,".",".",".",".",".",9,".",".",9,".","|",10,10,12,9,".",".",".",".",11,".",".","."],[".",".","|",".",".",".",".",".",".",".",".",".",".",".",".",".",".","|",".",".",".",".",".","|",".",11,".",".",".",".",".",".",".",".",".",9,9,".",9,"|",".",".",".",".",".",".",".",11,".",11,".","."],[".",".","|",".",".",".",".",".",".",".",".",".",".",".",".",".",".","|",".",".",".",".",".","|",".",".",".",".",".",13,"\\",11,"p",9,".",".",".",".",".","|",".",".",".",".",9,"/",11,".",".",".",".","."],[".",".","|",".",".",".",".",".",".",".",".",".",".",".",".",".",".","|",".",".",".",".",".","|",".",".",".",".",".",".",".",".",".",".",".",".",".",".",".","|",".",".",".",".",".",".",".",".",".",".",".","."],[".",".","|",".",".",".",".",".",".",".",".",".",".",".",".",".",".","|",".",".",".",".",".","|",".",".",".",".",".",".",".",".",".",".",".",".",".",".",".","|",".",".",".",".",".",".",".",".",".",".",".","."]],[[11,".",".","|",".",".",".",".",11,".",".",".",12,".",".",".",14,".",".",".",16,".",16,"|",".",".",".",".",".",".","|",".",".",".",".",".",11,"|",12,"v","|",10,"/",12,11,".",".",".",".",".",".","|"],[".",12,".","|",14,11,12,14,".",".",".",".",".",".",".",".",".",".",".",".",".",".",".","|",".",11,".",11,12,14,"|",12,"p",11,12,14,".","|",".",".","|",".",".",".",".",14,"v",12,"v",11,"v","|"],[".",".",11,"|",".",".",".",".",".",12,"/",13,".",13,"/",14,".",14,"/",16,".",16,".","|",11,".",11,".",".",".","|",".",".",".",".",".",".","|",".",".","|",".",".",".",".",".",".",".",".",".",".","|"],[".",".",".","|",".",".",".",".",".",".",".",".",".",".",".",".",".",".",".",".",".",".",".","|",".",".",".",".",".",".","|",".",".",".",".",".",".","|",".",".","|",".",".",".",".",".",".",".",".",".",".","|"],[".",".",".","|",".",".",".",".",".",".",".",".",".",".",".",".",".",".",".",".",".",".",".","|",".",".",".",".",".",".","|",".",".",".",".",".",".","|",".",".","|",".",".",".",".",".",".",".",".",".",".","|"],[".",".",".","|",".",".",".",".",".",".",".",".",".",".",".",".",".",".",".",".",".",".",".","|",".",".",".",".",".",".","|",".",".",".",".",".",".","|",".",".","|",".",".",".",".",".",".",".",".",".",".","|"]],[[".",".",".",".",".",".",".","|",".",".",".",11,".","|",12,"v",".",14,"|",12,11,".",".","|",".",".",".",".",".","|",".",".",".",".",".",".",11,".","|",".",".",".",".",".","|",".",".",".",".",".","."],[".",11,12,".",11,12,"v","|",11,12,14,".",".","|",".",".",".",".","|",".",".",14,12,"|",11,"v",11,12,14,"|",12,"p",11,"h",12,14,".",".","|",14,".",12,9,".","|",11,".",".",11,"h",12],[11,".",".",11,".",".",".","|",".",".",".",".",13,"|",".",".",13,".","|",".",".",".",".","|",".",".",".",".",".","|",".",".",".",".",".",".",".",14,"|",".",14,".",".",9,"|",".",11,".",".",".","."],[".",".",".",".",".",".",".","|",".",".",".",".",".","|",".",".",".",".","|",".",".",".",".","|",".",".",".",".",".","|",".",".",".",".",".",".",".",".","|",".",".",".",".",".","|",".",".",11,".",".","."],[".",".",".",".",".",".",".","|",".",".",".",".",".","|",".",".",".",".","|",".",".",".",".","|",".",".",".",".",".","|",".",".",".",".",".",".",".",".","|",".",".",".",".",".","|",".",".",".",".",".","."],[".",".",".",".",".",".",".","|",".",".",".",".",".","|",".",".",".",".","|",".",".",".",".","|",".",".",".",".",".","|",".",".",".",".",".",".",".",".","|",".",".",".",".",".","|",".",".",".",".",".","."]],[[".",".",".","|",".",".",".",".",".",".","|",".",".",".",".",".",".",".",".","|",".",".",".",".",".",".","|",".",".",".",".",".","."],[11,".",".","|",".",9,".",".",9,".","|",10,10,10,"p",9,".",".",".","|",".",11,".",".",11,".","|",12,".",12,12,"p",11],[".",13,11,"|",9,".",9,9,".",9,"|",".",".",".",".",".",".",".",".","|",11,".",11,11,".",11,"|",".",11,".",".",".","."],[".",".",".","|",".",".",".",".",".",".","|",".",".",".",".",".",9,"/",11,"|",".",".",".",".",".",".","|",".",".",".",".",".","."],[".",".",".","|",".",".",".",".",".",".","|",".",".",".",".",".",".",".",".","|",".",".",".",".",".",".","|",".",".",".",".",".","."],[".",".",".","|",".",".",".",".",".",".","|",".",".",".",".",".",".",".",".","|",".",".",".",".",".",".","|",".",".",".",".",".","."]]],"numberofstrings":6,"notes":["E","B","G","D","A","E","B"],"capo":0,"stringnotes":["E4","B3","G3","D3","A2","E2"],"comments":["Stave 1:","Stave 2:","Stave 3:","Stave 4:","Stave 5:"],"timing":[["W","W","W","W","W","W","W",null,"W","W","W","W","W",null,"W",null,"W","W","W","W","W","W",null,"W","W",null,"W",null,"W",null,"W","W","W","W",null,"W",null,"W",null,"W","W","W","W","W","W","W",null,"W","W","W"],["W","W",null,"W",null,"W",null,"W",null,"W","W","W","W",null,"W","W","W",null,"W","W","W","W","W",null,"W","W","W","W","W","W",null,"W",null,"W","W","W","W","W","W",null,"W","W","W","W","W",null,"W","W","W","W","W"],["W","W","W",null,"W","W","W","W","W","W",null,"W","W","W",null,"W","W","W",null,"W","W","W","W",null,"W","W","W","W","W","W",null,"W",null,"W","W","W","W",null,"W",null,"W","W","W","W","W","W","W","W",null,"W"],["W","W","W","W","W","W",null,null,"W","W","W","W","W",null,"W",null,"W","W",null,"W","W","W","W",null,"W",null,"W","W","W",null,"W",null,"W",null,"W","W","W","W",null,"W","W","W","W","W",null,"W","W","W","W",null,"W"],["W","W","W",null,"W","W","W","W","W","W",null,"W","W","W",null,"W","W",null,"W",null,"W","W","W","W","W","W",null,"W","W","W","W",null,"W"]],"timingvisible":false,"tabcounter":33,"stave":4,"totalstaves":5,"instrument":"6guitar","selectedtuning":"6_standard","version":"13"}

Member for

1 month 2 weeks
About Me
Just t
Submitted by Insign on Thu, 2021-01-21 15:18