Sweet Dreams-Marylin Manson: Guitar Tutorial

Chords
01234567891011121314151617181920212223
E
B
G
D
A
E
B
0 1 2 3 4 5 6 7 8 9 10 11 12 13 14 15 16 17 18 19 20 21 22 23
(/) Slide Up  (\) Slide Down  (h) Hammer On  (p) Pull Off  (b) Bend (r) Release (v) Vibrato

Stave 1: 2x

E|------------------------------------------------
B|------------------------------------------------
G|------------------------------------------------
D|--------5-----6-----5---------------------------
A|--3--3-----3-----3-----3--------6/8--------5/6--
E|--------------------------4--4-------3--3-------

Stave 2:

E|-----------------------------------------------------
B|-----------------------------------------------------
G|-----------------------------------------------------
D|--0h1--1-----1--1--1p0--1--1-----1--1-----1--1h3--0--
A|----------3-------------------3--------3-------------
E|-----------------------------------------------------

Stave 3:

E|------------------------------------------------------------
B|------------------------------------------------------------
G|------------------------------------------------------------
D|--1--1-----1--1-----1--1--1p0--1-----1-----1--1--1h3--1--0--
A|--------3--------3----------------3-----3-------------------
E|------------------------------------------------------------

Stave 4: 2x

E|---------------------------------------------------
B|---------------------------------------------------
G|---------------------------------------------------
D|--1--1-----1-----1--1p0--1--1-----1-----1--1h3--0--
A|--------3-----3----------------3-----3-------------
E|---------------------------------------------------

Stave 5: 5x/-

E|-------------------|----------
B|-----------3--3b---|----------
G|--5--3--5----------|--5--3/5--
D|-------------------|----------
A|-------------------|----------
E|-------------------|----------

Stave 6:

E|-----------------------------------------------------
B|-----------------------------------------------------
G|-----------------------------------------------------
D|--0h1--1-----1--1--1p0--1--1-----1--1-----1--1h3--0--
A|----------3-------------------3--------3-------------
E|-----------------------------------------------------

Stave 7:

E|------------------------------------------------------------
B|------------------------------------------------------------
G|------------------------------------------------------------
D|--1--1-----1--1-----1--1--1p0--1-----1-----1--1--1h3--1--0--
A|--------3--------3----------------3-----3-------------------
E|------------------------------------------------------------

Stave 8: 2x

E|--3--3--1--3--1--3--3p1----------------------------
B|---------------------------------------------------
G|---------------------------------------------------
D|-------------------------1--1-----1-----1--1h3--0--
A|-------------------------------3-----3-------------
E|---------------------------------------------------

Stave 9: 5x/-

E|-------------------|----------
B|-----------3--3b---|----------
G|--5--3--5----------|--5--3/5--
D|-------------------|----------
A|-------------------|----------
E|-------------------|----------

							http://www.guitartabcreator.com
Instruments
{"strings":[[[".",".",".",".",".",".",".",".",".",".",".",".",".",".",".",".",".","."],[".",".",".",".",".",".",".",".",".",".",".",".",".",".",".",".",".","."],[".",".",".",".",".",".",".",".",".",".",".",".",".",".",".",".",".","."],[".",".",5,".",6,".",5,".",".",".",".",".",".",".",".",".",".","."],[3,3,".",3,".",3,".",3,".",".",6,"/",8,".",".",5,"/",6],[".",".",".",".",".",".",".",".",4,4,".",".",".",3,3,".",".","."]],[[".",".",".",".",".",".",".",".",".",".",".",".",".",".",".",".",".",".",".",".","."],[".",".",".",".",".",".",".",".",".",".",".",".",".",".",".",".",".",".",".",".","."],[".",".",".",".",".",".",".",".",".",".",".",".",".",".",".",".",".",".",".",".","."],[0,"h",1,1,".",1,1,1,"p",0,1,1,".",1,1,".",1,1,"h",3,0],[".",".",".",".",3,".",".",".",".",".",".",".",3,".",".",3,".",".",".",".","."],[".",".",".",".",".",".",".",".",".",".",".",".",".",".",".",".",".",".",".",".","."]],[[".",".",".",".",".",".",".",".",".",".",".",".",".",".",".",".",".",".",".",".",".","."],[".",".",".",".",".",".",".",".",".",".",".",".",".",".",".",".",".",".",".",".",".","."],[".",".",".",".",".",".",".",".",".",".",".",".",".",".",".",".",".",".",".",".",".","."],[1,1,".",1,1,".",1,1,1,"p",0,1,".",1,".",1,1,1,"h",3,1,0],[".",".",3,".",".",3,".",".",".",".",".",".",3,".",3,".",".",".",".",".",".","."],[".",".",".",".",".",".",".",".",".",".",".",".",".",".",".",".",".",".",".",".",".","."]],[[".",".",".",".",".",".",".",".",".",".",".",".",".",".",".",".",".",".","."],[".",".",".",".",".",".",".",".",".",".",".",".",".",".",".",".",".",".","."],[".",".",".",".",".",".",".",".",".",".",".",".",".",".",".",".",".",".","."],[1,1,".",1,".",1,1,"p",0,1,1,".",1,".",1,1,"h",3,0],[".",".",3,".",3,".",".",".",".",".",".",3,".",3,".",".",".",".","."],[".",".",".",".",".",".",".",".",".",".",".",".",".",".",".",".",".",".","."]],[[".",".",".",".",".",".",".","|",".",".",".","."],[".",".",".",3,3,"b",".","|",".",".",".","."],[5,3,5,".",".",".",".","|",5,3,"/",5],[".",".",".",".",".",".",".","|",".",".",".","."],[".",".",".",".",".",".",".","|",".",".",".","."],[".",".",".",".",".",".",".","|",".",".",".","."]],[[".",".",".",".",".",".",".",".",".",".",".",".",".",".",".",".",".",".",".",".","."],[".",".",".",".",".",".",".",".",".",".",".",".",".",".",".",".",".",".",".",".","."],[".",".",".",".",".",".",".",".",".",".",".",".",".",".",".",".",".",".",".",".","."],[0,"h",1,1,".",1,1,1,"p",0,1,1,".",1,1,".",1,1,"h",3,0],[".",".",".",".",3,".",".",".",".",".",".",".",3,".",".",3,".",".",".",".","."],[".",".",".",".",".",".",".",".",".",".",".",".",".",".",".",".",".",".",".",".","."]],[[".",".",".",".",".",".",".",".",".",".",".",".",".",".",".",".",".",".",".",".",".","."],[".",".",".",".",".",".",".",".",".",".",".",".",".",".",".",".",".",".",".",".",".","."],[".",".",".",".",".",".",".",".",".",".",".",".",".",".",".",".",".",".",".",".",".","."],[1,1,".",1,1,".",1,1,1,"p",0,1,".",1,".",1,1,1,"h",3,1,0],[".",".",3,".",".",3,".",".",".",".",".",".",3,".",3,".",".",".",".",".",".","."],[".",".",".",".",".",".",".",".",".",".",".",".",".",".",".",".",".",".",".",".",".","."]],[[3,3,1,3,1,3,3,"p",1,".",".",".",".",".",".",".",".",".","."],[".",".",".",".",".",".",".",".",".",".",".",".",".",".",".",".",".",".","."],[".",".",".",".",".",".",".",".",".",".",".",".",".",".",".",".",".",".","."],[".",".",".",".",".",".",".",".",".",1,1,".",1,".",1,1,"h",3,0],[".",".",".",".",".",".",".",".",".",".",".",3,".",3,".",".",".",".","."],[".",".",".",".",".",".",".",".",".",".",".",".",".",".",".",".",".",".","."]],[[".",".",".",".",".",".",".","|",".",".",".","."],[".",".",".",3,3,"b",".","|",".",".",".","."],[5,3,5,".",".",".",".","|",5,3,"/",5],[".",".",".",".",".",".",".","|",".",".",".","."],[".",".",".",".",".",".",".","|",".",".",".","."],[".",".",".",".",".",".",".","|",".",".",".","."]]],"numberofstrings":6,"notes":["E","B","G","D","A","E","B"],"capo":0,"stringnotes":["E4","B3","G3","D3","A2","E2"],"comments":["Stave 1: 2x","Stave 2:","Stave 3:","Stave 4: 2x","Stave 5: 5x/-","Stave 6:","Stave 7:","Stave 8: 2x","Stave 9: 5x/-"],"timing":[[null,"W","W","W","W","W","W","W","W","W","W","W",null,"W","W","W","W",null,"W"],[null,"W",null,"W","W","W","W","W","W",null,"W","W","W","W","W","W","W","W","W","W","W","W"],[null,"W","W","W","W","W","W","W","W","W",null,"W","W","W","W","W","W","W","W",null,"W","W","W"],[null,"W","W","W","W","W","W","W",null,"W","W","W","W","W","W","W","W",null,"W","W"],[null,"W","W","W","W","W",null,null,null,"W","W","W","W"],[null,"W",null,"W","W","W","W","W","W",null,"W","W","W","W","W","W","W","W","W",null,"W","W"],[null,"W","W","W","W","W","W","W","W",null,"W","W","W","W","W","W","W","W",null,"W","W","W","W"],[null,"W","W","W","W","W","W","W",null,"W","W","W","W","W","W","W","W",null,"W","W"],[null,"W","W","W","W","W",null,null,null,"W","W",null,"W"]],"timingvisible":false,"tabcounter":12,"stave":8,"totalstaves":9,"instrument":"6guitar","selectedtuning":"6_standard","version":"13"}

Member for

6 days 23 hours
Submitted by inkarym93 on Thu, 2020-05-21 22:32