Numb-Linkin Park: Guitar Tutorial

Chords

01234567891011121314151617181920212223
E
B
G
D
A
E
B
0 1 2 3 4 5 6 7 8 9 10 11 12 13 14 15 16 17 18 19 20 21 22 23
(/) Slide Up  (\) Slide Down  (h) Hammer On  (p) Pull Off  (b) Bend (r) Release (v) Vibrato

Stave 1: 2x

E|-----0-----2--5--4-----0-----5--4--0--
B|--2-----2-----------2-----2-----------
G|--------------------------------------
D|--------------------------------------
A|--------------------------------------
E|--------------------------------------

Stave 2:

E|-----------------------------------------------------------|--------------------------------------------------------------
B|--2--2--2--2--3--2--2--0-----2--2--0-----0--2--2--0-----0--|--2--2--2--2--3--2--2--0-----2--2--0-----0-----2--0-----0--2--
G|--------------------------2-----------2--------------2-----|--------------------------2-----------2-----2--------2--------
D|-----------------------------------------------------------|--------------------------------------------------------------
A|-----------------------------------------------------------|--------------------------------------------------------------
E|-----------------------------------------------------------|--------------------------------------------------------------

Stave 3:

E|--------2--2--0-----------2--2--0----------
B|--2--2-----------2--2--2-----------2--3/5--
G|-------------------------------------------
D|-------------------------------------------
A|-------------------------------------------
E|-------------------------------------------

Stave 4:

E|--2--2--2--0--2--2--2--2--4--0--2--2--0--2--2--2--2--0--|--2--2--2--0--2--2--2--2--4--0--2--2--0--2--2--2--2--0--2--
B|--------------------------------------------------------|-----------------------------------------------------------
G|--------------------------------------------------------|-----------------------------------------------------------
D|--------------------------------------------------------|-----------------------------------------------------------
A|--------------------------------------------------------|-----------------------------------------------------------
E|--------------------------------------------------------|-----------------------------------------------------------

Stave 5:

E|--/2--2--2p0--2--0--0--2p0--0-------------------------|--------------------------------------------------------------
B|-------------------------------2--2--2h3--2--0--2--2--|--2--2--2--2--3--2--2--0-----2--2--0-----0-----2--0-----0--2--
G|------------------------------------------------------|--------------------------2-----------2-----2--------2--------
D|------------------------------------------------------|--------------------------------------------------------------
A|------------------------------------------------------|--------------------------------------------------------------
E|------------------------------------------------------|--------------------------------------------------------------

Stave 6:

E|--------2--2--0-----------2--2--0----------
B|--2--2-----------2--2--2-----------2--3/5--
G|-------------------------------------------
D|-------------------------------------------
A|-------------------------------------------
E|-------------------------------------------

Stave 7:

E|--------2--2--0--------------5--4--5--4--
B|--2--2-----------2--2--2--2--------------
G|-----------------------------------------
D|-----------------------------------------
A|-----------------------------------------
E|-----------------------------------------

Stave 8:

E|--2--2--2--0--2--2--2--2--4--0--2--2--0--2--2--2--2--0--|--2--2--2--0--2--2--2--2--4--0--2--2--0--2--2--2--2--0--2--
B|--------------------------------------------------------|-----------------------------------------------------------
G|--------------------------------------------------------|-----------------------------------------------------------
D|--------------------------------------------------------|-----------------------------------------------------------
A|--------------------------------------------------------|-----------------------------------------------------------
E|--------------------------------------------------------|-----------------------------------------------------------

Stave 9:

E|--2--5--4--2--4--5--4--5--4--2--|--2--5--4--2--4--2--4--4p2--4--2--4--2--4--4p2--4--2--5--4--
B|--------------------------------|------------------------------------------------------------
G|--------------------------------|------------------------------------------------------------
D|--------------------------------|------------------------------------------------------------
A|--------------------------------|------------------------------------------------------------
E|--------------------------------|------------------------------------------------------------

Stave 10: 4x

E|--2--2--2--0--2--2--2--2--4--0--2--2--0--2--2--2--2--0--
B|--------------------------------------------------------
G|--------------------------------------------------------
D|--------------------------------------------------------
A|--------------------------------------------------------
E|--------------------------------------------------------

Stave 11: 2x

E|-----0-----2--5--4-----0-----5--4--0--
B|--2-----2-----------2-----2-----------
G|--------------------------------------
D|--------------------------------------
A|--------------------------------------
E|--------------------------------------

							http://www.guitartabcreator.com
Instruments
{"strings":[[[".",0,".",2,5,4,".",0,".",5,4,0],[2,".",2,".",".",".",2,".",2,".",".","."],[".",".",".",".",".",".",".",".",".",".",".","."],[".",".",".",".",".",".",".",".",".",".",".","."],[".",".",".",".",".",".",".",".",".",".",".","."],[".",".",".",".",".",".",".",".",".",".",".","."]],[[".",".",".",".",".",".",".",".",".",".",".",".",".",".",".",".",".",".",".","|",".",".",".",".",".",".",".",".",".",".",".",".",".",".",".",".",".",".",".","."],[2,2,2,2,3,2,2,0,".",2,2,0,".",0,2,2,0,".",0,"|",2,2,2,2,3,2,2,0,".",2,2,0,".",0,".",2,0,".",0,2],[".",".",".",".",".",".",".",".",2,".",".",".",2,".",".",".",".",2,".","|",".",".",".",".",".",".",".",".",2,".",".",".",2,".",2,".",".",2,".","."],[".",".",".",".",".",".",".",".",".",".",".",".",".",".",".",".",".",".",".","|",".",".",".",".",".",".",".",".",".",".",".",".",".",".",".",".",".",".",".","."],[".",".",".",".",".",".",".",".",".",".",".",".",".",".",".",".",".",".",".","|",".",".",".",".",".",".",".",".",".",".",".",".",".",".",".",".",".",".",".","."],[".",".",".",".",".",".",".",".",".",".",".",".",".",".",".",".",".",".",".","|",".",".",".",".",".",".",".",".",".",".",".",".",".",".",".",".",".",".",".","."]],[[".",".",2,2,0,".",".",".",2,2,0,".",".",".","."],[2,2,".",".",".",2,2,2,".",".",".",2,3,"/",5],[".",".",".",".",".",".",".",".",".",".",".",".",".",".","."],[".",".",".",".",".",".",".",".",".",".",".",".",".",".","."],[".",".",".",".",".",".",".",".",".",".",".",".",".",".","."],[".",".",".",".",".",".",".",".",".",".",".",".",".",".","."]],[[2,2,2,0,2,2,2,2,4,0,2,2,0,2,2,2,2,0,"|",2,2,2,0,2,2,2,2,4,0,2,2,0,2,2,2,2,0,2],[".",".",".",".",".",".",".",".",".",".",".",".",".",".",".",".",".",".","|",".",".",".",".",".",".",".",".",".",".",".",".",".",".",".",".",".",".","."],[".",".",".",".",".",".",".",".",".",".",".",".",".",".",".",".",".",".","|",".",".",".",".",".",".",".",".",".",".",".",".",".",".",".",".",".",".","."],[".",".",".",".",".",".",".",".",".",".",".",".",".",".",".",".",".",".","|",".",".",".",".",".",".",".",".",".",".",".",".",".",".",".",".",".",".","."],[".",".",".",".",".",".",".",".",".",".",".",".",".",".",".",".",".",".","|",".",".",".",".",".",".",".",".",".",".",".",".",".",".",".",".",".",".","."],[".",".",".",".",".",".",".",".",".",".",".",".",".",".",".",".",".",".","|",".",".",".",".",".",".",".",".",".",".",".",".",".",".",".",".",".",".","."]],[["/",2,2,2,"p",0,2,0,0,2,"p",0,0,".",".",".",".",".",".",".",".",".","|",".",".",".",".",".",".",".",".",".",".",".",".",".",".",".",".",".",".",".","."],[".",".",".",".",".",".",".",".",".",".",".",".",".",2,2,2,"h",3,2,0,2,2,"|",2,2,2,2,3,2,2,0,".",2,2,0,".",0,".",2,0,".",0,2],[".",".",".",".",".",".",".",".",".",".",".",".",".",".",".",".",".",".",".",".",".",".","|",".",".",".",".",".",".",".",".",2,".",".",".",2,".",2,".",".",2,".","."],[".",".",".",".",".",".",".",".",".",".",".",".",".",".",".",".",".",".",".",".",".",".","|",".",".",".",".",".",".",".",".",".",".",".",".",".",".",".",".",".",".",".","."],[".",".",".",".",".",".",".",".",".",".",".",".",".",".",".",".",".",".",".",".",".",".","|",".",".",".",".",".",".",".",".",".",".",".",".",".",".",".",".",".",".",".","."],[".",".",".",".",".",".",".",".",".",".",".",".",".",".",".",".",".",".",".",".",".",".","|",".",".",".",".",".",".",".",".",".",".",".",".",".",".",".",".",".",".",".","."]],[[".",".",2,2,0,".",".",".",2,2,0,".",".",".","."],[2,2,".",".",".",2,2,2,".",".",".",2,3,"/",5],[".",".",".",".",".",".",".",".",".",".",".",".",".",".","."],[".",".",".",".",".",".",".",".",".",".",".",".",".",".","."],[".",".",".",".",".",".",".",".",".",".",".",".",".",".","."],[".",".",".",".",".",".",".",".",".",".",".",".",".",".","."]],[[".",".",2,2,0,".",".",".",".",5,4,5,4],[2,2,".",".",".",2,2,2,2,".",".",".","."],[".",".",".",".",".",".",".",".",".",".",".",".","."],[".",".",".",".",".",".",".",".",".",".",".",".","."],[".",".",".",".",".",".",".",".",".",".",".",".","."],[".",".",".",".",".",".",".",".",".",".",".",".","."]],[[2,2,2,0,2,2,2,2,4,0,2,2,0,2,2,2,2,0,"|",2,2,2,0,2,2,2,2,4,0,2,2,0,2,2,2,2,0,2],[".",".",".",".",".",".",".",".",".",".",".",".",".",".",".",".",".",".","|",".",".",".",".",".",".",".",".",".",".",".",".",".",".",".",".",".",".","."],[".",".",".",".",".",".",".",".",".",".",".",".",".",".",".",".",".",".","|",".",".",".",".",".",".",".",".",".",".",".",".",".",".",".",".",".",".","."],[".",".",".",".",".",".",".",".",".",".",".",".",".",".",".",".",".",".","|",".",".",".",".",".",".",".",".",".",".",".",".",".",".",".",".",".",".","."],[".",".",".",".",".",".",".",".",".",".",".",".",".",".",".",".",".",".","|",".",".",".",".",".",".",".",".",".",".",".",".",".",".",".",".",".",".","."],[".",".",".",".",".",".",".",".",".",".",".",".",".",".",".",".",".",".","|",".",".",".",".",".",".",".",".",".",".",".",".",".",".",".",".",".",".","."]],[[2,5,4,2,4,5,4,5,4,2,"|",2,5,4,2,4,2,4,4,"p",2,4,2,4,2,4,4,"p",2,4,2,5,4],[".",".",".",".",".",".",".",".",".",".","|",".",".",".",".",".",".",".",".",".",".",".",".",".",".",".",".",".",".",".",".",".","."],[".",".",".",".",".",".",".",".",".",".","|",".",".",".",".",".",".",".",".",".",".",".",".",".",".",".",".",".",".",".",".",".","."],[".",".",".",".",".",".",".",".",".",".","|",".",".",".",".",".",".",".",".",".",".",".",".",".",".",".",".",".",".",".",".",".","."],[".",".",".",".",".",".",".",".",".",".","|",".",".",".",".",".",".",".",".",".",".",".",".",".",".",".",".",".",".",".",".",".","."],[".",".",".",".",".",".",".",".",".",".","|",".",".",".",".",".",".",".",".",".",".",".",".",".",".",".",".",".",".",".",".",".","."]],[[2,2,2,0,2,2,2,2,4,0,2,2,0,2,2,2,2,0],[".",".",".",".",".",".",".",".",".",".",".",".",".",".",".",".",".","."],[".",".",".",".",".",".",".",".",".",".",".",".",".",".",".",".",".","."],[".",".",".",".",".",".",".",".",".",".",".",".",".",".",".",".",".","."],[".",".",".",".",".",".",".",".",".",".",".",".",".",".",".",".",".","."],[".",".",".",".",".",".",".",".",".",".",".",".",".",".",".",".",".","."]],[[".",0,".",2,5,4,".",0,".",5,4,0],[2,".",2,".",".",".",2,".",2,".",".","."],[".",".",".",".",".",".",".",".",".",".",".","."],[".",".",".",".",".",".",".",".",".",".",".","."],[".",".",".",".",".",".",".",".",".",".",".","."],[".",".",".",".",".",".",".",".",".",".",".","."]]],"numberofstrings":6,"notes":["E","B","G","D","A","E","B"],"capo":0,"stringnotes":["E4","B3","G3","D3","A2","E2"],"comments":["Stave 1: 2x","Stave 2:","Stave 3:","Stave 4:","Stave 5:","Stave 6:","Stave 7:","Stave 8:","Stave 9:","Stave 10: 4x","Stave 11: 2x"],"timing":[[null,"W","W","W","W","W","W","W","W","W","W","W","W"],[null,"W","W","W","W","W","W","W","W","W","W","W","W","W","W","W","W","W","W","W",null,null,"W","W","W","W","W","W","W","W","W","W","W","W","W","W","W","W","W","W","W"],[null,"W","W","W","W","W","W","W","W","W","W","W","W","W","W","W","W","W","W","W","W"],[null,"W","W","W","W","W","W","W","W","W","W","W","W","W",null,"W"],[null,null,"W","W","W","W","W","W","W","W","W",null,"W","W","W","W","W",null,"W","W","W","W","W",null,"W","W","W","W","W","W","W","W","W","W","W","W","W","W","W","W","W","W","W","W"],[null,"W","W","W","W","W","W","W","W","W","W","W","W","W",null,"W"],[null,"W","W","W","W","W","W","W","W","W","W","W","W","W"],[null,"W","W","W","W","W","W","W","W","W","W","W","W","W","W","W","W","W","W",null,"W","W","W","W","W","W","W","W","W","W","W","W","W","W","W","W","W","W","W"],[null,"W","W","W","W","W","W","W","W","W","W",null,"W","W","W","W","W","W","W","W",null,"W","W","W","W","W","W","W",null,"W","W","W","W","W"],[null,"W","W","W","W","W","W","W","W","W","W","W","W","W","W","W","W","W","W"],[null,"W","W","W","W","W","W","W","W","W","W","W","W"]],"timingvisible":false,"tabcounter":12,"stave":10,"totalstaves":11,"instrument":"6guitar","selectedtuning":"6_standard","version":"13"}

Member for

2 weeks 2 days
Submitted by inkarym93 on Thu, 2020-05-21 23:27