7 Nation Army-The White Stripes: Guitar Tutorial

Chords
01234567891011121314151617181920212223
E
B
G
D
A
E
B
0 1 2 3 4 5 6 7 8 9 10 11 12 13 14 15 16 17 18 19 20 21 22 23
(/) Slide Up  (\) Slide Down  (h) Hammer On  (p) Pull Off  (b) Bend (r) Release (v) Vibrato

Stave 1: 4x

E|-----------------------|--
B|-----------------------|--
G|-----------------------|--
D|--------5--------------|--
A|--7--7-----7--5--3--2--|--
E|-----------------------|--

Stave 2:

E|----------------|--------------------------------------|--------7--------
B|--5--5/8--5--5--|-----5-----5-----5-----5-----5--5--5--|--5--5-----5--5--
G|----------------|--7-----7-----7-----7-----7-----------|-----------------
D|----------------|--------------------------------------|-----------------
A|----------------|--------------------------------------|-----------------
E|----------------|--------------------------------------|-----------------

Stave 3:

E|-----------------------------------|--------7--7--5--5--3--3--------------------
B|--5-----5-----5-----5-----5--5--5--|--5--5--------------------5--5--5--4--4--5--
G|-----7-----7-----7-----7-----------|--------------------------------------------
D|-----------------------------------|--------------------------------------------
A|-----------------------------------|--------------------------------------------
E|-----------------------------------|--------------------------------------------

Stave 4:

E|--------------------------------------|--------------------------------------------
B|--5-----5-----5--5--5--5--5--4--4--5--|--/5--5--5--5--5--5--5--5--5--5--5/8--5--5--
G|-----7-----7--------------------------|--------------------------------------------
D|--------------------------------------|--------------------------------------------
A|--------------------------------------|--------------------------------------------
E|--------------------------------------|--------------------------------------------

Stave 5: 2x

E|--------------------------------------------------
B|--/5--5--8--5---------/5--5--8--5-----------------
G|---------------7--5--4-------------7--5--7--5--4--
D|--------------------------------------------------
A|--------------------------------------------------
E|--------------------------------------------------

Stave : 4x

E|-----------------------|--
B|-----------------------|--
G|-----------------------|--
D|--------5--------------|--
A|--7--7-----7--5--3--2--|--
E|-----------------------|--

Stave 6:

E|----------------|--------------------------------------|--------7--------
B|--5--5/8--5--5--|-----5-----5-----5-----5-----5--5--5--|--5--5-----5--5--
G|----------------|--7-----7-----7-----7-----7-----------|-----------------
D|----------------|--------------------------------------|-----------------
A|----------------|--------------------------------------|-----------------
E|----------------|--------------------------------------|-----------------

Stave 7:

E|-----------------------------------|--------7--7--5--5--3--3--------------------
B|--5-----5-----5-----5-----5--5--5--|--5--5--------------------5--5--5--4--4--5--
G|-----7-----7-----7-----7-----------|--------------------------------------------
D|-----------------------------------|--------------------------------------------
A|-----------------------------------|--------------------------------------------
E|-----------------------------------|--------------------------------------------

Stave 8:

E|--------------------------------------|--------------------------------------------
B|--5-----5-----5--5--5--5--5--4--4--5--|--/5--5--5--5--5--5--5--5--5--5--5/8--5--5--
G|-----7-----7--------------------------|--------------------------------------------
D|--------------------------------------|--------------------------------------------
A|--------------------------------------|--------------------------------------------
E|--------------------------------------|--------------------------------------------

Stave 9: 2x

E|--------------------------------------------------
B|--/5--5--8--5--5/8--7/5--5--8/10--8--8--10--8--7--
G|--------------------------------------------------
D|--------------------------------------------------
A|--------------------------------------------------
E|--------------------------------------------------

Stave 10:

E|--/12--12--15--12--12/15--14--|--/12--12--15/17--15--14--
B|------------------------------|--------------------------
G|------------------------------|--------------------------
D|------------------------------|--------------------------
A|------------------------------|--------------------------
E|------------------------------|--------------------------

Stave 11:

E|--12--12--15--12--12/17--14--|--/12--12--14--12--12--14--12----------
B|-----------------------------|-------------------------------13--12--
G|-----------------------------|---------------------------------------
D|-----------------------------|---------------------------------------
A|-----------------------------|---------------------------------------
E|-----------------------------|---------------------------------------

							http://www.guitartabcreator.com
Instruments
{"strings":[[[".",".",".",".",".",".",".","|"],[".",".",".",".",".",".",".","|"],[".",".",".",".",".",".",".","|"],[".",".",5,".",".",".",".","|"],[7,7,".",7,5,3,2,"|"],[".",".",".",".",".",".",".","|"]],[[".",".",".",".",".",".","|",".",".",".",".",".",".",".",".",".",".",".",".","|",".",".",7,".","."],[5,5,"/",8,5,5,"|",".",5,".",5,".",5,".",5,".",5,5,5,"|",5,5,".",5,5],[".",".",".",".",".",".","|",7,".",7,".",7,".",7,".",7,".",".",".","|",".",".",".",".","."],[".",".",".",".",".",".","|",".",".",".",".",".",".",".",".",".",".",".",".","|",".",".",".",".","."],[".",".",".",".",".",".","|",".",".",".",".",".",".",".",".",".",".",".",".","|",".",".",".",".","."],[".",".",".",".",".",".","|",".",".",".",".",".",".",".",".",".",".",".",".","|",".",".",".",".","."]],[[".",".",".",".",".",".",".",".",".",".",".","|",".",".",7,7,5,5,3,3,".",".",".",".",".","."],[5,".",5,".",5,".",5,".",5,5,5,"|",5,5,".",".",".",".",".",".",5,5,5,4,4,5],[".",7,".",7,".",7,".",7,".",".",".","|",".",".",".",".",".",".",".",".",".",".",".",".",".","."],[".",".",".",".",".",".",".",".",".",".",".","|",".",".",".",".",".",".",".",".",".",".",".",".",".","."],[".",".",".",".",".",".",".",".",".",".",".","|",".",".",".",".",".",".",".",".",".",".",".",".",".","."],[".",".",".",".",".",".",".",".",".",".",".","|",".",".",".",".",".",".",".",".",".",".",".",".",".","."]],[[".",".",".",".",".",".",".",".",".",".",".",".","|",".",".",".",".",".",".",".",".",".",".",".",".",".",".",".","."],[5,".",5,".",5,5,5,5,5,4,4,5,"|","/",5,5,5,5,5,5,5,5,5,5,5,"/",8,5,5],[".",7,".",7,".",".",".",".",".",".",".",".","|",".",".",".",".",".",".",".",".",".",".",".",".",".",".",".","."],[".",".",".",".",".",".",".",".",".",".",".",".","|",".",".",".",".",".",".",".",".",".",".",".",".",".",".",".","."],[".",".",".",".",".",".",".",".",".",".",".",".","|",".",".",".",".",".",".",".",".",".",".",".",".",".",".",".","."],[".",".",".",".",".",".",".",".",".",".",".",".","|",".",".",".",".",".",".",".",".",".",".",".",".",".",".",".","."]],[[".",".",".",".",".",".",".",".",".",".",".",".",".",".",".",".",".","."],["/",5,5,8,5,".",".",".","/",5,5,8,5,".",".",".",".","."],[".",".",".",".",".",7,5,4,".",".",".",".",".",7,5,7,5,4],[".",".",".",".",".",".",".",".",".",".",".",".",".",".",".",".",".","."],[".",".",".",".",".",".",".",".",".",".",".",".",".",".",".",".",".","."],[".",".",".",".",".",".",".",".",".",".",".",".",".",".",".",".",".","."]],[[".",".",".",".",".",".","|",".",".",".",".",".",".",".",".",".",".",".",".","|",".",".",7,".","."],[5,5,"/",8,5,5,"|",".",5,".",5,".",5,".",5,".",5,5,5,"|",5,5,".",5,5],[".",".",".",".",".",".","|",7,".",7,".",7,".",7,".",7,".",".",".","|",".",".",".",".","."],[".",".",".",".",".",".","|",".",".",".",".",".",".",".",".",".",".",".",".","|",".",".",".",".","."],[".",".",".",".",".",".","|",".",".",".",".",".",".",".",".",".",".",".",".","|",".",".",".",".","."],[".",".",".",".",".",".","|",".",".",".",".",".",".",".",".",".",".",".",".","|",".",".",".",".","."]],[[".",".",".",".",".",".",".",".",".",".",".","|",".",".",7,7,5,5,3,3,".",".",".",".",".","."],[5,".",5,".",5,".",5,".",5,5,5,"|",5,5,".",".",".",".",".",".",5,5,5,4,4,5],[".",7,".",7,".",7,".",7,".",".",".","|",".",".",".",".",".",".",".",".",".",".",".",".",".","."],[".",".",".",".",".",".",".",".",".",".",".","|",".",".",".",".",".",".",".",".",".",".",".",".",".","."],[".",".",".",".",".",".",".",".",".",".",".","|",".",".",".",".",".",".",".",".",".",".",".",".",".","."],[".",".",".",".",".",".",".",".",".",".",".","|",".",".",".",".",".",".",".",".",".",".",".",".",".","."]],[[".",".",".",".",".",".",".",".",".",".",".",".","|",".",".",".",".",".",".",".",".",".",".",".",".",".",".",".","."],[5,".",5,".",5,5,5,5,5,4,4,5,"|","/",5,5,5,5,5,5,5,5,5,5,5,"/",8,5,5],[".",7,".",7,".",".",".",".",".",".",".",".","|",".",".",".",".",".",".",".",".",".",".",".",".",".",".",".","."],[".",".",".",".",".",".",".",".",".",".",".",".","|",".",".",".",".",".",".",".",".",".",".",".",".",".",".",".","."],[".",".",".",".",".",".",".",".",".",".",".",".","|",".",".",".",".",".",".",".",".",".",".",".",".",".",".",".","."],[".",".",".",".",".",".",".",".",".",".",".",".","|",".",".",".",".",".",".",".",".",".",".",".",".",".",".",".","."]],[[".",".",".",".",".",".",".",".",".",".",".",".",".",".",".",".",".",".",".","."],["/",5,5,8,5,5,"/",8,7,"/",5,5,8,"/",10,8,8,10,8,7],[".",".",".",".",".",".",".",".",".",".",".",".",".",".",".",".",".",".",".","."],[".",".",".",".",".",".",".",".",".",".",".",".",".",".",".",".",".",".",".","."],[".",".",".",".",".",".",".",".",".",".",".",".",".",".",".",".",".",".",".","."],[".",".",".",".",".",".",".",".",".",".",".",".",".",".",".",".",".",".",".","."]],[["/",12,12,15,12,12,"/",15,14,"|","/",12,12,15,"/",17,15,14],[".",".",".",".",".",".",".",".",".","|",".",".",".",".",".",".",".","."],[".",".",".",".",".",".",".",".",".","|",".",".",".",".",".",".",".","."],[".",".",".",".",".",".",".",".",".","|",".",".",".",".",".",".",".","."],[".",".",".",".",".",".",".",".",".","|",".",".",".",".",".",".",".","."],[".",".",".",".",".",".",".",".",".","|",".",".",".",".",".",".",".","."]],[[12,12,15,12,12,"/",17,14,"|","/",12,12,14,12,12,14,12,".","."],[".",".",".",".",".",".",".",".","|",".",".",".",".",".",".",".",".",13,12],[".",".",".",".",".",".",".",".","|",".",".",".",".",".",".",".",".",".","."],[".",".",".",".",".",".",".",".","|",".",".",".",".",".",".",".",".",".","."],[".",".",".",".",".",".",".",".","|",".",".",".",".",".",".",".",".",".","."],[".",".",".",".",".",".",".",".","|",".",".",".",".",".",".",".",".",".","."]]],"numberofstrings":6,"notes":["E","B","G","D","A","E","B"],"capo":0,"stringnotes":["E4","B3","G3","D3","A2","E2"],"comments":["Stave 1: 4x","Stave 2:","Stave 3:","Stave 4:","Stave 5: 2x","Stave 6:","Stave 7:","Stave 8:","Stave 9: 2x","Stave 10:","Stave 11:","Stave 12:","Stave 13:"],"timing":[[null,null,"W","W","W","W","W","W",null,"W","W","W","W","W","W","W",null,"W","W","W","W","W","W","W",null,"W","W","W","W","W","W","W"],[null,"W","W",null,"W","W","W",null,"W","W","W","W","W","W","W","W","W","W","W","W",null,"W","W","W","W","W"],[null,"W","W","W","W","W","W","W","W","W","W","W",null,"W","W","W","W","W","W","W","W","W","W","W","W","W","W"],[null,"W","W","W","W","W","W","W","W","W","W","W","W","W","W","W","W","W","W",null,"W","W","W","W","W","W","W","W","W","W"],[null,null,"W","W","W","W","W","W","W",null,"W","W","W","W","W","W","W","W","W",null,"W","W","W","W","W","W","W"],[null,"W","W",null,"W","W","W",null,"W","W","W","W","W","W","W","W","W","W","W","W",null,"W","W","W","W","W"],[null,"W","W","W","W","W","W","W","W","W","W","W",null,"W","W","W","W","W","W","W","W","W","W","W","W","W","W"],[null,"W","W","W","W","W","W","W","W","W","W","W","W",null,null,"W","W","W","W","W","W","W","W","W","W","W","W","W","W","W"],[null,null,"W","W","W","W","W",null,"W","W",null,"W","W","W",null,"W","W","W","W","W","W"],[null,null,"W","W","W","W","W",null,"W","W",null,null,"W","W","W",null,"W","W","W"],[null,null,"W","W","W",null,"W","W","W","W","W","W"],[null,"W","W","W","W","W",null,"W","W",null,null,"W","W","W","W","W","W","W","W","W"],[null,"W","W","W","W","W","W","W","W","W","W"]],"timingvisible":false,"tabcounter":18,"stave":4,"totalstaves":11,"instrument":"6guitar","selectedtuning":"6_standard","version":"13"}

Member for

6 days 23 hours
Submitted by inkarym93 on Thu, 2020-05-21 17:27