Maverick

01234567891011121314151617181920212223
E
B
G
D
A
E
B
0 1 2 3 4 5 6 7 8 9 10 11 12 13 14 15 16 17 18 19 20 21 22 23
(/) Slide Up  (\) Slide Down  (h) Hammer On  (p) Pull Off  (b) Bend (r) Release (v) Vibrato

Stave 1:

E|-------------------5-6-8-10-8-6-5-6-------------------------0-----------------------------
B|---8-8---6-6---5-6------------------6-5-6---------6-------6-----------6-------6---------6-
G|-7-----7-----7----------------------------7-----7-------7-----7-9-9-7-------7---7-9-9-7---
D|----------------------------------------------0-------0-------------------0---------------
A|--------------------------------------------0-------0-------------------0-----------------
E|------------------------------------------------------------------------------------------

Stave 2:

E|---------------------------------0-----------------0---------------------------------
B|-------6---6----------6--------6---6---6---5-6---6---6----------5-6----------6-5-6---
G|-----7---7---7----7-9---7----7-------7---7-----7-------7------7-----7------7-------7-
D|---0--------------------------------------------------------0------------0-----------
A|-0-----------------------------------------------------------------------------------
E|-------------------------------------------------------------------------------------

Stave 3:

E|-------------------------------------------------------------------------0-0--------------0-----0-
B|-----6-5-6-5------------6-----6----------6---6----------6-----6--------6-----6----------6-----6---
G|---7---------7--------7-----7----------7--------------7---7----------7---------7------7-----7-----
D|-0------------------0-----0----------0-----0--------0-------0------0-------------0----------------
A|------------------0----------------0--------------0-----------------------------------------------
E|--------------------------------------------------------------------------------------------------

Stave 4:

E|-------0-----0-----0--------0-------0---------------0-------0-------0-------0-------5-----
B|-----6-----6-----6--------6---6---6---6-----------6---6---6---6---6---6---6---6---6---6---
G|---7-----7-----7--------7-------7----------7----7-------7-------7-------7-------7-------7-
D|-0----------------------------------------------------------------------------------------
A|------------------------------------------------------------------------------------------
E|------------------------------------------------------------------------------------------

Stave 5:

E|-----0-------0-------0-------0-------5-------0-------8-------0-------5-----0----------0-----0-----5-
B|---6---6---6---6---6---6---6---6---6---6---6---6---6---6---6---6---6---6-----6------6-----6-----6---
G|-7-------7-------7-------7-------7-------7-------7-------7-------7-------7--------7-----7-----7-----
D|----------------------------------------------------------------------------------------------------
A|----------------------------------------------------------------------------------------------------
E|----------------------------------------------------------------------------------------------------

Stave 6:

E|----------------------------------------------------------------------
B|---6---------6------6---------6---------------------------------------
G|-7---7-9-9-7------7---7-9-9-7------7-5---5-8-7-5---5-7-8-7-5---5-3-5v-
D|---------------------------------------6---------6-----------6--------
A|----------------------------------------------------------------------
E|----------------------------------------------------------------------

Stave 7:

E|---------3----3-3-3-5-3-----------------------------------3----3-3-3-5-3--------------------------------
B|---5-3-5----------------5----5-5-5-3----3-3-----3---5-3-5----------------5-------5-5-5-3----3-3-------3-
G|-4------------------------------------------5-3---4---------------------------------------------5-3-5---
D|--------------------------------------------------------------------------------------------------------
A|--------------------------------------------------------------------------------------------------------
E|--------------------------------------------------------------------------------------------------------

Stave 8:

E|-----0-----------------------------------------------5-------0------------0-----0--------5---------------5-
B|---6----------6-5-6-8-6-5-6--------6-5-6-8-6-5-6---6---6---6---6--------6-----6--------6---------------6---
G|-0----------7---------------7----7---------------7-------7-------7----7-----7--------7---------------7-----
D|----------0----------------------------------------------------------------------------------------0-------
A|-------------------------------------------------------------------------------------------------0---------
E|-----------------------------------------------------------------------------------------------------------

							http://www.guitartabcreator.com
Chords

Instruments
{"strings":[[[".",".",".",".",".",".",".",".",".",5,6,8,10,8,6,5,6,".",".",".",".",".",".",".",".",".",".",".",".",0,".",".",".",".",".",".",".",".",".",".",".",".",".","."],[".",8,8,".",6,6,".",5,6,".",".",".",".",".",".",".",".",6,5,6,".",".",".",".",6,".",".",".",6,".",".",".",".",".",6,".",".",".",6,".",".",".",".",6],[7,".",".",7,".",".",7,".",".",".",".",".",".",".",".",".",".",".",".",".",7,".",".",7,".",".",".",7,".",".",7,9,9,7,".",".",".",7,".",7,9,9,7,"."],[".",".",".",".",".",".",".",".",".",".",".",".",".",".",".",".",".",".",".",".",".",".",0,".",".",".",0,".",".",".",".",".",".",".",".",".",0,".",".",".",".",".",".","."],[".",".",".",".",".",".",".",".",".",".",".",".",".",".",".",".",".",".",".",".",".",0,".",".",".",0,".",".",".",".",".",".",".",".",".",0,".",".",".",".",".",".",".","."],[".",".",".",".",".",".",".",".",".",".",".",".",".",".",".",".",".",".",".",".",".",".",".",".",".",".",".",".",".",".",".",".",".",".",".",".",".",".",".",".",".",".",".","."]],[[".",".",".",".",".",".",".","_",".",".",".",".","_",".",".",0,".",".",".",".",".",".",".",".",0,".",".","_",".",".",".",".",".","_",".",".",".",".",".","."],[".",".",".",6,".",6,".","_",".",".",6,".","_",".",6,".",6,".",6,".",5,6,".",6,".",6,".","_",".",".",5,6,".","_",".",".",6,5,6,"."],[".",".",7,".",7,".",7,"_",7,9,".",7,"_",7,".",".",".",7,".",7,".",".",7,".",".",".",7,"_",".",7,".",".",7,"_",".",7,".",".",".",7],[".",0,".",".",".",".",".","_",".",".",".",".","_",".",".",".",".",".",".",".",".",".",".",".",".",".",".","_",0,".",".",".",".","_",0,".",".",".",".","."],[0,".",".",".",".",".",".","_",".",".",".",".","_",".",".",".",".",".",".",".",".",".",".",".",".",".",".","_",".",".",".",".",".","_",".",".",".",".",".","."],[".",".",".",".",".",".",".","_",".",".",".",".","_",".",".",".",".",".",".",".",".",".",".",".",".",".",".","_",".",".",".",".",".","_",".",".",".",".",".","."]],[[".",".",".",".",".",".",".","_",".",".",".",".",".",".",".","_",".",".",".",".",".",".","_",".",".",".",".",".",".",".","_",".",".",".",0,0,".",".",".","_",".",".",0,".",".",0],[".",".",6,5,6,5,".","_",".",".",".",6,".",".",6,"_",".",".",".",6,".",6,"_",".",".",".",6,".",".",6,"_",".",".",6,".",".",6,".",".","_",".",6,".",".",6,"."],[".",7,".",".",".",".",7,"_",".",".",7,".",".",7,".","_",".",".",7,".",".",".","_",".",".",7,".",7,".",".","_",".",7,".",".",".",".",7,".","_",7,".",".",7,".","."],[0,".",".",".",".",".",".","_",".",0,".",".",0,".",".","_",".",0,".",".",0,".","_",".",0,".",".",".",0,".","_",0,".",".",".",".",".",".",0,"_",".",".",".",".",".","."],[".",".",".",".",".",".",".","_",0,".",".",".",".",".",".","_",0,".",".",".",".",".","_",0,".",".",".",".",".",".","_",".",".",".",".",".",".",".",".","_",".",".",".",".",".","."],[".",".",".",".",".",".",".","_",".",".",".",".",".",".",".","_",".",".",".",".",".",".","_",".",".",".",".",".",".",".","_",".",".",".",".",".",".",".",".","_",".",".",".",".",".","."]],[[".",".",".",0,".",".",0,".",".",0,"_",".",".",0,".",".",".",0,".","_",".","_",".",".",0,".",".",".",0,".",".",".",0,".",".",".",0,".",".",".",5,".","."],[".",".",6,".",".",6,".",".",6,".","_",".",6,".",6,".",6,".",6,"_",".","_",".",6,".",6,".",6,".",6,".",6,".",6,".",6,".",6,".",6,".",6,"."],[".",7,".",".",7,".",".",7,".",".","_",7,".",".",".",7,".",".",".","_",7,"_",7,".",".",".",7,".",".",".",7,".",".",".",7,".",".",".",7,".",".",".",7],[0,".",".",".",".",".",".",".",".",".","_",".",".",".",".",".",".",".",".","_",".","_",".",".",".",".",".",".",".",".",".",".",".",".",".",".",".",".",".",".",".",".","."],[".",".",".",".",".",".",".",".",".",".","_",".",".",".",".",".",".",".",".","_",".","_",".",".",".",".",".",".",".",".",".",".",".",".",".",".",".",".",".",".",".",".","."],[".",".",".",".",".",".",".",".",".",".","_",".",".",".",".",".",".",".",".","_",".","_",".",".",".",".",".",".",".",".",".",".",".",".",".",".",".",".",".",".",".",".","."]],[[".",".",0,".",".",".",0,".",".",".",0,".",".",".",0,".",".",".",5,".",".",".",0,".",".",".",8,".",".",".",0,".",".",".",5,".",".",0,".","_",".",".",0,".",".",0,".",".",5],[".",6,".",6,".",6,".",6,".",6,".",6,".",6,".",6,".",6,".",6,".",6,".",6,".",6,".",6,".",6,".",6,".",6,".",6,".",".",6,"_",".",6,".",".",6,".",".",6,"."],[7,".",".",".",7,".",".",".",7,".",".",".",7,".",".",".",7,".",".",".",7,".",".",".",7,".",".",".",7,".",".",".",7,".",".",".",7,".",".","_",7,".",".",7,".",".",7,".","."],[".",".",".",".",".",".",".",".",".",".",".",".",".",".",".",".",".",".",".",".",".",".",".",".",".",".",".",".",".",".",".",".",".",".",".",".",".",".",".","_",".",".",".",".",".",".",".",".","."],[".",".",".",".",".",".",".",".",".",".",".",".",".",".",".",".",".",".",".",".",".",".",".",".",".",".",".",".",".",".",".",".",".",".",".",".",".",".",".","_",".",".",".",".",".",".",".",".","."],[".",".",".",".",".",".",".",".",".",".",".",".",".",".",".",".",".",".",".",".",".",".",".",".",".",".",".",".",".",".",".",".",".",".",".",".",".",".",".","_",".",".",".",".",".",".",".",".","."]],[[".",".",".",".",".",".",".","_",".",".",".",".",".",".",".","_",".",".",".",".",".",".",".",".",".",".",".",".",".",".",".",".",".","."],[".",6,".",".",".",".",6,"_",".",6,".",".",".",".",6,"_",".",".",".",".",".",".",".",".",".",".",".",".",".",".",".",".",".","."],[7,".",7,9,9,7,".","_",7,".",7,9,9,7,".","_",7,5,".",5,8,7,5,".",5,7,8,7,5,".",5,3,5,"v"],[".",".",".",".",".",".",".","_",".",".",".",".",".",".",".","_",".",".",6,".",".",".",".",6,".",".",".",".",".",6,".",".",".","."],[".",".",".",".",".",".",".","_",".",".",".",".",".",".",".","_",".",".",".",".",".",".",".",".",".",".",".",".",".",".",".",".",".","."],[".",".",".",".",".",".",".","_",".",".",".",".",".",".",".","_",".",".",".",".",".",".",".",".",".",".",".",".",".",".",".",".",".","."]],[[".",".",".",".",3,"_",3,3,3,5,3,".","_",".",".",".",".","_",".",".",".",".",".",".",".",".",".",3,"_",3,3,3,5,3,".","_","_",".",".",".",".","_",".",".",".",".",".","."],[".",5,3,5,".","_",".",".",".",".",".",5,"_",5,5,5,3,"_",3,3,".",".",3,".",5,3,5,".","_",".",".",".",".",".",5,"_","_",5,5,5,3,"_",3,3,".",".",".",3],[4,".",".",".",".","_",".",".",".",".",".",".","_",".",".",".",".","_",".",".",5,3,".",4,".",".",".",".","_",".",".",".",".",".",".","_","_",".",".",".",".","_",".",".",5,3,5,"."],[".",".",".",".",".","_",".",".",".",".",".",".","_",".",".",".",".","_",".",".",".",".",".",".",".",".",".",".","_",".",".",".",".",".",".","_","_",".",".",".",".","_",".",".",".",".",".","."],[".",".",".",".",".","_",".",".",".",".",".",".","_",".",".",".",".","_",".",".",".",".",".",".",".",".",".",".","_",".",".",".",".",".",".","_","_",".",".",".",".","_",".",".",".",".",".","."],[".",".",".",".",".","_",".",".",".",".",".",".","_",".",".",".",".","_",".",".",".",".",".",".",".",".",".",".","_",".",".",".",".",".",".","_","_",".",".",".",".","_",".",".",".",".",".","."]],[[".",".",0,"_",".",".",".",".",".",".",".",".",".",".","_",".",".",".",".",".",".",".",".",".",".",5,".",".",".",0,".",".","_",".",".",0,".",".",0,"_",".",".",5,"_","_",".",".",".",".",5],[".",6,".","_",".",".",6,5,6,8,6,5,6,".","_",".",6,5,6,8,6,5,6,".",6,".",6,".",6,".",6,".","_",".",6,".",".",6,".","_",".",6,".","_","_",".",".",".",6,"."],[0,".",".","_",".",7,".",".",".",".",".",".",".",7,"_",7,".",".",".",".",".",".",".",7,".",".",".",7,".",".",".",7,"_",7,".",".",7,".",".","_",7,".",".","_","_",".",".",7,".","."],[".",".",".","_",0,".",".",".",".",".",".",".",".",".","_",".",".",".",".",".",".",".",".",".",".",".",".",".",".",".",".",".","_",".",".",".",".",".",".","_",".",".",".","_","_",".",0,".",".","."],[".",".",".","_",".",".",".",".",".",".",".",".",".",".","_",".",".",".",".",".",".",".",".",".",".",".",".",".",".",".",".",".","_",".",".",".",".",".",".","_",".",".",".","_","_",0,".",".",".","."],[".",".",".","_",".",".",".",".",".",".",".",".",".",".","_",".",".",".",".",".",".",".",".",".",".",".",".",".",".",".",".",".","_",".",".",".",".",".",".","_",".",".",".","_","_",".",".",".",".","."]]],"numberofstrings":6,"notes":["E","B","G","D","A","E","B"],"capo":0,"stringnotes":["E4","B3","G3","D3","A2","E2"],"comments":["Stave 1:","Stave 2:","Stave 3:","Stave 4:","Stave 5:","Stave 6:","Stave 7:","Stave 8:"],"timing":[[null,null,null,null,null,null,null,null,null,null,null,null,null,null,null,null,null,null,null,null,null,null,null,null,null,null,null,null,null,null,null,null,null,null,null,null,null,null,null,null,null,null,null,null],[null,null,null,null,null,null,null,null,null,null,null,null,null,null,null,null,null,null,null,null,null,null,null,null,null,null,null,null,null,null,null,null,null,null,null,null,null,null,null,null],[null,null,null,null,null,null,null,null,null,null,null,null,null,null,null,null,null,null,null,null,null,null,null,null,null,null,null,null,null,null,null,null,null,null,null,null,null,null,null,null,null,null,null,null,null,null,null,null,null,null,null],[null,null,null,null,null,null,null,null,null,null,null,null,null,null,null,null,null,null,null,null,null,null,null,null,null,null,null,null,null,null,null,null,null,null,null,null,null,null,null,null,null,null,null],[null,null,null,null,null,null,null,null,null,null,null,null,null,null,null,null,null,null,null,null,null,null,null,null,null,null,null,null,null,null,null,null,null,null,null,null,null,null,null,null,null,null,null,null,null,null,null,null,null],[null,null,null,null,null,null,null,null,null,null,null,null,null,null,null,null,null,null,null,null,null,null,null,null,null,null,null,null,null,null,null,null,null,null],[null,null,null,null,null,null,null,null,null,null,null,null,null,null,null,null,null,null,null,null,null,null,null,null,null,null,null,null,null,null,null,null,null,null,null,null,null,null,null,null,null,null,null,null,null,null,null,null],[null,null,null,null,null,null,null,null,null,null,null,null,null,null,null,null,null,null,null,null,null,null,null,null,null,null,null,null,null,null,null,null,null,null,null,null,null,null,null,null,null,null,null,null,null,null,null,null,null,null]],"timingvisible":false,"tabcounter":50,"stave":7,"totalstaves":8,"instrument":"6guitar","selectedtuning":"6_standard","version":"13"}

Member for

1 month 1 week
Submitted by InfEql77 on Sat, 2021-01-16 23:38