Sound will begin in 5 seconds

Dreamwalker

01234567891011121314151617181920212223
E
B
G
D
A
E
B
0 1 2 3 4 5 6 7 8 9 10 11 12 13 14 15 16 17 18 19 20 21 22 23
Song Science #1: How Pros Use 6 Chords to Write Hit Songs
(/) Slide Up  (\) Slide Down  (h) Hammer On  (p) Pull Off  (b) Bend (r) Release (v) Vibrato

Stave 1:

D|-----------------------------------------------------------------
A|-----------------------------------------------------------------
F|---------------------10---10---9---5---5-----9---5---------------
C|-------5-4---4-----------------------------------------7-8-----7-
G|---2-------5---5---8----8----7---3---3---0-7---3-----5-------3---
C|-2---2-----------0---------------------------------5-------3-----

Stave 2:

D|-------------------------------------------
A|---------------3-----2---------------------
F|-------------2-----2-------2---------------
C|-----3-----0-----0-------0-------3---5---9-
G|---3-----0-------------2-------3---3---7---
C|-3-----0---------------------3-------------

Stave 3:

D|-------------------------------------------0-------0-
A|-----------------------------------------------------
F|-----------------5-----------------------------------
C|-----7-----3---5-------5-----7-----3---5-------7-----
G|---7-----3---3-------5-----7-----3---3---3---5---5---
C|-7-----3-----------5-----7-----3---------------------

http://www.guitartabcreator.com
Guitar Tab Creator is intended to store guitar tab created through the tool. It currently does not support in-line text editing. Any text you place in here will be lost. If you need to comment on your tab, please use the "Tab Notes" section located below.