Sound will begin in 5 seconds

Lost Fragrance

01234567891011121314151617181920212223
E
B
G
D
A
E
B
0 1 2 3 4 5 6 7 8 9 10 11 12 13 14 15 16 17 18 19 20 21 22 23
Song Science #1: How Pros Use 6 Chords to Write Hit Songs
(/) Slide Up  (\) Slide Down  (h) Hammer On  (p) Pull Off  (b) Bend (r) Release (v) Vibrato

Capo Fret 4

Stave 1:

E|---------------------------------------------------------------
B|-------3-----------1-----------0-------0-----------1-----------
G|----------0-------------------------------0--------------------
D|-------------2-----------2-------------------2-----------2-----
A|--3-------------3-----3-----3-----3-------------3-----3-----3--
E|---------------------------------------------------------------

Stave 2:

E|--------------------------------------------------------------
B|--------------------------------------------------------------
G|--------7--------------7--------------7--------------7--------
D|-----5-----5--------5-----5--------5-----5--------5-----0-----
A|--7-----------7--7-----------7--7-----------7--7-----------0--
E|--------------------------------------------------------------

Stave 3:

E|-------------------------------------------------------------
B|-------3-----------1-----------0-----0-----------1-----------
G|----------0-----------------------------0--------------------
D|-------------2-----------2-----------------2-----------2-----
A|--3-------------3-----3-----3-----3-----------3-----3-----3--
E|-------------------------------------------------------------

Stave 4:

E|--------------------------------------------------------------
B|-----0--------------------------------------------------------
G|--------7--------------7--------------7--------------7--------
D|-----------5--------5-----5--------5-----5--------5-----0-----
A|--7-----------7--7-----------7--7-----------7--7-----------0--
E|--------------------------------------------------------------

Stave 5:

E|-----------------------------------------------------------------
B|-------0----------------0----------------0-----------1-----------
G|----------0----------------0----------------0--------------------
D|-------------2----------------2----------------2-----------2-----
A|--3-------------3--3-------------3--3-------------3-----3-----3--
E|-----------------------------------------------------------------

Stave 6:

E|--------------------------------------------------------------
B|--------------------------------------------------------------
G|--------9--------------9--------------9--------------9--------
D|-----7-----7--------7-----7--------7-----7--------7-----0-----
A|--9-----------9--9-----------9--9-----------9--9-----------0--
E|--------------------------------------------------------------

Stave 7:

E|--------------------------------------------------------------
B|-------0----------------0----------------0-----------1--------
G|----------0----------------0----------------0-----------------
D|-------------2----------------2----------------2--------------
A|--3-------------3--3-------------3--3-------------3-----------
E|--------------------------------------------------------------

Stave 8:

E|--------------------------------------------------------------
B|--------------------------------------------------------------
G|--------9--------------9--------------9--------------9--------
D|-----7-----7--------7-----7--------7-----7--------7-----0-----
A|--9-----------9--9-----------9--9-----------9--9-----------0--
E|--------------------------------------------------------------

Stave 9:

E|----------------------------------------------------------------
B|----------------------------------------------------------------
G|---------9----------------9--------------7--------------7-------
D|-----10-----10--------10-----10-------5-----5--------5-----5----
A|--8-------------8--8---------------7-----------7--7-------------
E|----------------------------------------------------------------

Stave 10:

E|--------------------------------------------------------------
B|-----0--------------0--------------1--------------1-----------
G|--------2--------------2--------------0--------------0--------
D|-----------1--------------1--------------2--------------2-----
A|--2-----------2--2-----------2--0-----------0--0-----------0--
E|--------------------------------------------------------------

Stave 11:

E|-----------------------------------------------------------
B|-----0--------------0--------------1-----------1-----------
G|--------2--------------2--------------0-----------0--------
D|-----------1--------------1--------------2-----------2-----
A|--2-----------2--2-----------2--0-----------0-----------0--
E|-----------------------------------------------------------

Stave 12:

E|-------------------------------------------------
B|----------------------------------3--------------
G|----------4--------------4-----------------------
D|-------------------------------------------------
A|-------5-----5--------5-----5--------------------
E|----3-----------3--3-----------3-----------------

http://www.guitartabcreator.com
Guitar Tab Creator is intended to store guitar tab created through the tool. It currently does not support in-line text editing. Any text you place in here will be lost. If you need to comment on your tab, please use the "Tab Notes" section located below.