Sound will begin in 5 seconds

Ideas

Chords
01234567891011121314151617181920212223
E
B
G
D
A
E
B
0 1 2 3 4 5 6 7 8 9 10 11 12 13 14 15 16 17 18 19 20 21 22 23
Song Science #1: How Pros Use 6 Chords to Write Hit Songs
(/) Slide Up  (\) Slide Down  (h) Hammer On  (p) Pull Off  (b) Bend (r) Release (v) Vibrato

Stave 1:

E|-6-------6-------7-------8-------9---10-------------10-12-10---------------------------15----15----15-------
B|-3---3-------4-------5-------6-----7-------------------------10-12-10---------------------------------------
G|-3-----3-------4-------5-------6-----7--------------------------------8-------------12----12----12----12----
D|------------------------------------------------------------------------------------------------------------
A|-5-5-------6-------7-------8-------9------------------------------------------------------------------------
E|------------------------------------------------------------------------------------------------------------

Stave 2:

E|---8-8-8-8-7-7-6-6-6-6-5-5-4-4-4-4-3-----1----3-7-7-7-7-4-4-3-3-3-3-1-3-3-5-7-8-11-10-8----------------
B|-8-----------------------------------4-3---------------------------------------------------------------
G|-------------------------------------------------------------------------------------------------------
D|-------------------------------------------------------------------------------------------------------
A|-------------------------------------------------------------------------------------------------------
E|-------------------------------------------------------------------------------------------------------

Stave 3:

E|-----------------------------------------------7-12-10-10-8-12-8---
B|-10-8------8-10----10-8--------10----10-8----8-------------------8-
G|---------9----------------7-10------------10-----------------------
D|------10----------------9------------------------------------------
A|-------------------------------------------------------------------
E|-------------------------------------------------------------------

Stave 4:

E|-
B|-
G|-
D|-
A|-
E|-

http://www.guitartabcreator.com
Guitar Tab Creator is intended to store guitar tab created through the tool. It currently does not support in-line text editing. Any text you place in here will be lost. If you need to comment on your tab, please use the "Tab Notes" section located below.