G Major Scale in 4ths, 5ths, and 6ths

Chords

01234567891011121314151617181920212223
E
B
G
D
A
E
B
0 1 2 3 4 5 6 7 8 9 10 11 12 13 14 15 16 17 18 19 20 21 22 23
(/) Slide Up  (\) Slide Down  (h) Hammer On  (p) Pull Off  (b) Bend (r) Release (v) Vibrato

Descending 4ths

E|--8-----7-----5-----------------------------------------------------------------------------
B|-----8-----7-----5--8-----7-----5-----------------------------------------------------------
G|-----------------------7-----5-----4--7-----5-----4-----------------------------------------
D|-----------------------------------------7-----5-----4--7-----5-----4-----------------------
A|-----------------------------------------------------------7-----5-----3--7-----5-----3-----
E|-----------------------------------------------------------------------------7-----5-----3--

Ascending 5ths

E|--------------------------------------------------------------------------------------------
B|-----------------------------------------------------------------------------5--------7-----
G|--------------------------------------------------4--------5--------7--------------4-----4--
D|-----------------------4--------5--------7--------------4-----4--5-----5--7-----7-----------
A|-----5--------7--------------3-----3--5-----5--7-----7--------------------------------------
E|--3-----3--5-----5--7-----7-----------------------------------------------------------------

Ascending 5ths (CONTINUED)

E|--------------5--------7--------8--------
B|-----8--------------5-----5--7-----7--8--
G|--5-----5--7-----7-----------------------
D|-----------------------------------------
A|-----------------------------------------
E|-----------------------------------------

Ascending 6ths 

E|--------------------------------------------------------------------------------------------
B|-----------------------------------------------------------------------5--------7--------8--
G|--------------------------------------------4--------5--------7--------------------4--4-----
D|-----------------4--------5--------7--------------------4--4-----5--5-----7--7--------------
A|--------7--------------------3--3-----5--5-----7--7-----------------------------------------
E|--3--3-----5--5-----7--7--------------------------------------------------------------------

Ascending 6ths (CONTINUED)

E|--------5--------7--------8--------10--10--
B|--------------------5--5-----7--7------8---
G|--5--5-----7--7----------------------------
D|-------------------------------------------
A|-------------------------------------------
E|-------------------------------------------

Ascending in leaps of 5th, and descending in leaps of 4ths

E|--------------7-------------------------------
B|-----------5-----7--8-----8-------------------
G|-----------------------------7----------------
D|--------7-----------------------7-------------
A|-----5-----------------------------7----------
E|--3-----------------------------------7/2--3--

1-5-6

E|-----------------------------------------------------------------------------
B|-----------------------------------------------------------------------------
G|-----------------------------------2--------4--------5---------7----------9--
D|--------2--------4--------5-----5--------7--------9--------10---------12-----
A|-----5--------7--------9-----3--------5--------7--------9---------10---------
E|--3--------5--------7--------------------------------------------------------

							http://www.guitartabcreator.com
Instruments
{"strings":[[[8,".",7,".",5,".",".",".",".",".",".",".",".",".",".",".",".",".",".",".",".",".",".",".",".",".",".",".",".","."],[".",8,".",7,".",5,8,".",7,".",5,".",".",".",".",".",".",".",".",".",".",".",".",".",".",".",".",".",".","."],[".",".",".",".",".",".",".",7,".",5,".",4,7,".",5,".",4,".",".",".",".",".",".",".",".",".",".",".",".","."],[".",".",".",".",".",".",".",".",".",".",".",".",".",7,".",5,".",4,7,".",5,".",4,".",".",".",".",".",".","."],[".",".",".",".",".",".",".",".",".",".",".",".",".",".",".",".",".",".",".",7,".",5,".",3,7,".",5,".",3,"."],[".",".",".",".",".",".",".",".",".",".",".",".",".",".",".",".",".",".",".",".",".",".",".",".",".",7,".",5,".",3]],[[".",".",".",".",".",".",".",".",".",".",".",".",".",".",".",".",".",".",".",".",".",".",".",".",".",".",".",".",".","."],[".",".",".",".",".",".",".",".",".",".",".",".",".",".",".",".",".",".",".",".",".",".",".",".",".",5,".",".",7,"."],[".",".",".",".",".",".",".",".",".",".",".",".",".",".",".",".",4,".",".",5,".",".",7,".",".",".",".",4,".",4],[".",".",".",".",".",".",".",4,".",".",5,".",".",7,".",".",".",".",4,".",4,5,".",5,7,".",7,".",".","."],[".",5,".",".",7,".",".",".",".",3,".",3,5,".",5,7,".",7,".",".",".",".",".",".",".",".",".",".",".","."],[3,".",3,5,".",5,7,".",7,".",".",".",".",".",".",".",".",".",".",".",".",".",".",".",".",".",".",".",".","."]],[[".",".",".",".",5,".",".",7,".",".",8,".","."],[".",8,".",".",".",".",5,".",5,7,".",7,8],[5,".",5,7,".",7,".",".",".",".",".",".","."],[".",".",".",".",".",".",".",".",".",".",".",".","."],[".",".",".",".",".",".",".",".",".",".",".",".","."],[".",".",".",".",".",".",".",".",".",".",".",".","."]],[[".",".",".",".",".",".",".",".",".",".",".",".",".",".",".",".",".",".",".",".",".",".",".",".",".",".",".",".",".","."],[".",".",".",".",".",".",".",".",".",".",".",".",".",".",".",".",".",".",".",".",".",".",".",5,".",".",7,".",".",8],[".",".",".",".",".",".",".",".",".",".",".",".",".",".",4,".",".",5,".",".",7,".",".",".",".",".",".",4,4,"."],[".",".",".",".",".",4,".",".",5,".",".",7,".",".",".",".",".",".",4,4,".",5,5,".",7,7,".",".",".","."],[".",".",7,".",".",".",".",".",".",3,3,".",5,5,".",7,7,".",".",".",".",".",".",".",".",".",".",".",".","."],[3,3,".",5,5,".",7,7,".",".",".",".",".",".",".",".",".",".",".",".",".",".",".",".",".",".",".",".",".","."]],[[".",".",5,".",".",7,".",".",8,".",".",10,10],[".",".",".",".",".",".",5,5,".",7,7,".",8],[5,5,".",7,7,".",".",".",".",".",".",".","."],[".",".",".",".",".",".",".",".",".",".",".",".","."],[".",".",".",".",".",".",".",".",".",".",".",".","."],[".",".",".",".",".",".",".",".",".",".",".",".","."]],[[".",".",".",".",7,".",".","_",".",".",".",".",".",".",".","."],[".",".",".",5,".",7,8,"_",8,".",".",".",".",".",".","."],[".",".",".",".",".",".",".","_",".",7,".",".",".",".",".","."],[".",".",7,".",".",".",".","_",".",".",7,".",".",".",".","."],[".",5,".",".",".",".",".","_",".",".",".",7,".",".",".","."],[3,".",".",".",".",".",".","_",".",".",".",".",7,"/",2,3]],[[".",".",".",".",".",".",".",".",".",".",".",".",".",".",".",".",".",".",".",".",".",".",".","."],[".",".",".",".",".",".",".",".",".",".",".",".",".",".",".",".",".",".",".",".",".",".",".","."],[".",".",".",".",".",".",".",".",".",".",".",2,".",".",4,".",".",5,".",".",7,".",".",9],[".",".",2,".",".",4,".",".",5,".",5,".",".",7,".",".",9,".",".",10,".",".",12,"."],[".",5,".",".",7,".",".",9,".",3,".",".",5,".",".",7,".",".",9,".",".",10,".","."],[3,".",".",5,".",".",7,".",".",".",".",".",".",".",".",".",".",".",".",".",".",".",".","."]]],"numberofstrings":6,"notes":["E","B","G","D","A","E","B"],"capo":0,"stringnotes":["E4","B3","G3","D3","A2","E2"],"comments":["Descending 4ths","Ascending 5ths","Ascending 5ths (CONTINUED)","Ascending 6ths ","Ascending 6ths (CONTINUED)","Ascending in leaps of 5th, and descending in leaps of 4ths","1-5-6"],"timing":[["W","W","W","W","W","W","W","W","W","W","W","W","W","W","W","W","W","W","W","W","W","W","W","W","W","W","W","W","W","W"],["W","W","W","W","W","W","W","W","W","W","W","W","W","W","W","W","W","W","W","W","W","W","W","W","W","W","W","W","W","W","W","W","W","W","W","W"],["W","W","W","W","W","W","W","W","W","W","W","W","W"],["W","W","W","W","W","W","W","W","W","W","W","W","W","W","W","W","W","W","W","W","W","W","W","W","W","W","W","W","W","W","W","W","W","W","W","W"],["W","W","W","W","W","W","W","W","W","W","W","W","W"],["W","W","W","W","W","W","W",null,"W","W","W","W","W","W","W","W"],["W","W","W","W","W","W","W","W","W","W","W","W","W","W","W","W","W","W","W","W","W","W","W","W"]],"timingvisible":false,"tabcounter":24,"stave":6,"totalstaves":7,"instrument":"6guitar","selectedtuning":"6_standard","version":"13"}

Member for

1 month 1 week
Submitted by ilipson on Thu, 2020-05-21 17:22