Blues Riff Toolbox #1

Chords

01234567891011121314151617181920212223
E
B
G
D
A
E
B
0 1 2 3 4 5 6 7 8 9 10 11 12 13 14 15 16 17 18 19 20 21 22 23
(/) Slide Up  (\) Slide Down  (h) Hammer On  (p) Pull Off  (b) Bend (r) Release (v) Vibrato

Stave 1: (SLIDE QUICKLY FROM 12 TO 14 AT THE START OF THIS RIFF!)

E|---------------------------------
B|---------------------------------
G|---------------------------------
D|----------------12------12--14v--
A|--------12--14------14-----------
E|---------------------------------

Stave 2: (PRACTICE THIS USING ALTERNATE (DOWN-UP) PICKING!)

E|---------------------------------------------
B|--------------------------12-----------------
G|--------------12--13--14---------14--12------
D|--12--13--14-----------------------------14--
A|---------------------------------------------
E|---------------------------------------------

Stave 3: (PRACTICE THIS USING ALTERNATE (DOWN-UP) PICKING TOO!)

E|--15--14--12-------------------------------------------
B|--------------15--14--12--------------12---------------
G|--------------------------14--12--14------14--12-------
D|--------------------------------------------------14v--
A|-------------------------------------------------------
E|-------------------------------------------------------

Stave 4: BEND UPWARD ON THE 14th FRET OF THE G STRING, SO THE PITCH IS NEAR TO WHAT IT WOULD BE ON THE 16th FRET.)

E|-------------12-------------12--
B|---------12-------------12------
G|--14b16----------14b16----------
D|--------------------------------
A|--------------------------------
E|--------------------------------

Stave 5: (USE YOUR PINKY TO PULL OFF FROM THE 15th TO THE 12th FRET ON THE B STRING)

E|-------------12--------------------12---------
B|---------12------15p12---------12------15p12--
G|--14b16-----------------14b16-----------------
D|----------------------------------------------
A|----------------------------------------------
E|----------------------------------------------

							http://www.guitartabcreator.com
Instruments
{"strings":[[[".",".",".",".",".",".",".",".","."],[".",".",".",".",".",".",".",".","."],[".",".",".",".",".",".",".",".","."],[".",".",".",".",12,".",12,14,"v"],[".",".",12,14,".",14,".",".","."],[".",".",".",".",".",".",".",".","."]],[[".",".",".",".",".",".",".","_",".",".","."],[".",".",".",".",".",".",12,"_",".",".","."],[".",".",".",12,13,14,".","_",14,12,"."],[12,13,14,".",".",".",".","_",".",".",14],[".",".",".",".",".",".",".","_",".",".","."],[".",".",".",".",".",".",".","_",".",".","."]],[[15,14,12,".",".",".",".",".",".",".",".",".",".","."],[".",".",".",15,14,12,".",".",".",12,".",".",".","."],[".",".",".",".",".",".",14,12,14,".",14,12,".","."],[".",".",".",".",".",".",".",".",".",".",".",".",14,"v"],[".",".",".",".",".",".",".",".",".",".",".",".",".","."],[".",".",".",".",".",".",".",".",".",".",".",".",".","."]],[[".",".",".",".",12,".",".",".",".",12],[".",".",".",12,".",".",".",".",12,"."],[14,"b",16,".",".",14,"b",16,".","."],[".",".",".",".",".",".",".",".",".","."],[".",".",".",".",".",".",".",".",".","."],[".",".",".",".",".",".",".",".",".","."]],[[".",".",".",".",12,".",".",".",".",".",".",".",12,".",".","."],[".",".",".",12,".",15,"p",12,".",".",".",12,".",15,"p",12],[14,"b",16,".",".",".",".",".",14,"b",16,".",".",".",".","."],[".",".",".",".",".",".",".",".",".",".",".",".",".",".",".","."],[".",".",".",".",".",".",".",".",".",".",".",".",".",".",".","."],[".",".",".",".",".",".",".",".",".",".",".",".",".",".",".","."]]],"numberofstrings":6,"notes":["E","B","G","D","A","E","B"],"capo":0,"stringnotes":["E4","B3","G3","D3","A2","E2"],"comments":["Stave 1: (SLIDE QUICKLY FROM 12 TO 14 AT THE START OF THIS RIFF!)","Stave 2: (PRACTICE THIS USING ALTERNATE (DOWN-UP) PICKING!)","Stave 3: (PRACTICE THIS USING ALTERNATE (DOWN-UP) PICKING TOO!)","Stave 4: BEND UPWARD ON THE 14th FRET OF THE G STRING, SO THE PITCH IS NEAR TO WHAT IT WOULD BE ON THE 16th FRET.)","Stave 5: (USE YOUR PINKY TO PULL OFF FROM THE 15th TO THE 12th FRET ON THE B STRING)"],"timing":[["W","W","W","W","W",null,null,null,null,null,null,null,null,null,null,null,"W"],["W","W","W","W","W","W","W",null,"W","W","W"],["W","W","W","W","W","W","W","W","W","W","W","W","W"],["W",null,"W","W","W","W",null,"W","W","W"],["W",null,"W","W","W","W",null,"W","W",null,"W","W","W","W",null,"W"]],"timingvisible":false,"tabcounter":16,"stave":4,"totalstaves":5,"instrument":"6guitar","selectedtuning":"6_standard","version":"13"}

Member for

1 month 1 week
Submitted by ilipson on Thu, 2020-05-21 14:26