Sound will begin in 5 seconds

Be Enthroned

01234567891011121314151617181920212223
E
B
G
D
A
E
B
0 1 2 3 4 5 6 7 8 9 10 11 12 13 14 15 16 17 18 19 20 21 22 23
Song Science #1: How Pros Use 6 Chords to Write Hit Songs
(/) Slide Up  (\) Slide Down  (h) Hammer On  (p) Pull Off  (b) Bend (r) Release (v) Vibrato

Stave 1:

E|---------------13--12-------------13--12---------
B|-----------13----------15-----13----------15-----
G|-------------------------------------------------
D|-------------------------------------------------
A|-------------------------------------------------
E|-------------------------------------------------

Stave 2:

E|------13--15--17--12--15--17-------------13--15--17--12--15--17---------
B|--13--------------------------15-----13--------------------------15-----
G|------------------------------------------------------------------------
D|------------------------------------------------------------------------
A|------------------------------------------------------------------------
E|------------------------------------------------------------------------

Stave 3:

E|------------------------------------------------------------
B|--1-----------1-----------1/3--5--1--------1/3--5--1-----1--
G|------------------------------------------------------------
D|-----3--2--------3--2----------------2----------------------
A|------------------------------------------------------------
E|------------------------------------------------------------

Stave 4:

E|-----------------------------------------------------------------------------------
B|--13------------13----------------17----------------17-----------------17----------
G|------10--9---------10--9-----19------17--9-----19------17--17-----19------17--17--
D|-----------------------------------------------------------------------------------
A|-----------------------------------------------------------------------------------
E|-----------------------------------------------------------------------------------

Stave 5:

E|------13--15--17--12--15--17-------------13--15--17--12--15--17------
B|--13--------------------------15-----13--------------------------15--
G|---------------------------------------------------------------------
D|---------------------------------------------------------------------
A|---------------------------------------------------------------------
E|---------------------------------------------------------------------

Stave 6:

E|------------------------------------------------------------------------
B|--13--13--13--13--13--13--13--13-----12--12--12--12--12--12--12--12-----
G|------------------------------------------------------------------------
D|------------------------------------------------------------------------
A|------------------------------------------------------------------------
E|------------------------------------------------------------------------

Stave 7:

E|------------------------------------------------------------------------
B|--15--15--15--15--15--15--15--15-----13--13--13--13--13--13--13--13-----
G|------------------------------------------------------------------------
D|------------------------------------------------------------------------
A|------------------------------------------------------------------------
E|------------------------------------------------------------------------

Stave 8:

E|------------------------------------------------------------------------
B|------------------------------------------------------------------------
G|--12--12--12--12--12--12--12--12-----10--10--10--10--10--10--10--10-----
D|------------------------------------------------------------------------
A|------------------------------------------------------------------------
E|------------------------------------------------------------------------

Stave 9:

E|--------------------------------------------------
B|--------------------------------------------------
G|--9--9--9--9--9--9--9--9--9--9--9--9--9--9--9--9--
D|--------------------------------------------------
A|--------------------------------------------------
E|--------------------------------------------------

Stave 10:

E|------------------------------------------------------------------------
B|------------------------------------------------------------------------
G|--12--12--12--12--12--12--12--12-----10--10--10--10--10--10--10--10-----
D|------------------------------------------------------------------------
A|------------------------------------------------------------------------
E|------------------------------------------------------------------------

Stave 11:

E|---------------------------------------------------------
B|--------------------------------------------------------\
G|--9--9--9--9--9--9--9--9-----7--7--7--7--7--7--7--7------
D|---------------------------------------------------------
A|---------------------------------------------------------
E|---------------------------------------------------------

http://www.guitartabcreator.com
Guitar Tab Creator is intended to store guitar tab created through the tool. It currently does not support in-line text editing. Any text you place in here will be lost. If you need to comment on your tab, please use the "Tab Notes" section located below.