Sound will begin in 5 seconds

olivers army

Chords
01234567891011121314151617181920212223
E
B
G
D
A
E
B
0 1 2 3 4 5 6 7 8 9 10 11 12 13 14 15 16 17 18 19 20 21 22 23
(/) Slide Up  (\) Slide Down  (h) Hammer On  (p) Pull Off  (b) Bend (r) Release (v) Vibrato

Stave 1:

E|--------7-----6-----7-----------7-----6-----7-----6-----------6-----7-----9-----7--------
B|--------------------------9--------------------------------------------------------------
G|-----------------------------------------------------------------------------------------
D|-----------------------------------------------------------------------------------------
A|--------------------------7--7-----7-----7-----7--9--9--9--9-----9-----9-----9-----------
E|--7--7-----7-----7-----7-----------------------------------------------------------------

Stave 2:

E|--------------------------------------
B|--------------------------------------
G|--8-----------8-----------------------
D|--9--2--4-----9--2--1-----6--8--6--8--
A|--9--2--4-----9--2--1-----4--6--4--6--
E|--7--0--2-----7--0--0-----4--6--4--6--

Stave 3:

E|--------------------------------------------------------
B|--------------------------------------------0--2--4--0--
G|-----------------6--6-----------3-----------------------
D|--------9--8--9--------7--6--7--4-----------------------
A|--------9--9--9-----------------4-----------------------
E|--7--7-----------0--------------2--2--2--2--------------

http://www.guitartabcreator.com
Guitar Tab Creator is intended to store guitar tab created through the tool. It currently does not support in-line text editing. Any text you place in here will be lost. If you need to comment on your tab, please use the "Tab Notes" section located below.