Sound will begin in 5 seconds

Voice of War

Chords
01234567891011121314151617181920212223
E
B
G
D
A
E
B
0 1 2 3 4 5 6 7 8 9 10 11 12 13 14 15 16 17 18 19 20 21 22 23
Song Science #1: How Pros Use 6 Chords to Write Hit Songs
(/) Slide Up  (\) Slide Down  (h) Hammer On  (p) Pull Off  (b) Bend (r) Release (v) Vibrato

Stave 1:

E|-----------------------------------------
B|-----------------------------------------
G|-------------------------------3-------3-
D|-------------------------------2-------2-
A|-2h3p2-1h2p1-------------------1-------1-
E|-------------2h3p4-1h2p1-0-0-0---0-0-0---

Stave 2:

E|-----------------------------------
B|-----------------------------------
G|-------------------------------3---
D|-------------------------------2-1-
A|-2h3p2-1h2p1-------------------1-1-
E|-------------2h3p2-1h2p1-0-0-0---0-

Stave 3:

E|-----------------------------------------------------------------------------------------
B|-----------------------------------------------------------------------------------------
G|-----------------------------------------------------------------------------------------
D|-----------------------------------------------------------------------------------------
A|---------------------------------------------------------------------------------9-12-12-
E|-0----0----0-0-0-0-0-0----0----0----0-0-0-0-0-0----0----0----0-0-0-0-0-0----0----7-10-10-

Stave 4:

E|------------------------------------------------------------------------------------------
B|------------------------------------------------------------------------------------------
G|------------------------------------------------------------------------------------------
D|------------------------------------------------------------------------------------------
A|---------------------------------------------------------------------------------12-11-11-
E|-0----0----0-0-0-0-0-0----0----0----0-0-0-0-0-0----0----0----0-0-0-0-0-0----0----10-9--9--

Stave 5:

E|-------------------------------------------------------------------------------------------
B|-------------------------------------------------------------------------------------------
G|-3-------------------------------------------------7-------------------------6-------------
D|-2-------------------------------------------------7-------------------------6-------------
A|-1-------------------------------------------------5-------------------------4-------------
E|-------------------------------------------------------------------------------------------

Stave 6:

E|-------------------------------------------------------------------
B|-------------------------------------------------------------------
G|-------------------------------------------------------------------
D|-------------------------------------------------------------------
A|--------------------4-3-------------5-4-------------2-3-2----1-2-1-
E|-0----0----0-0-0----2-1----0-0-0----3-2----0-0-0-------------------

Stave 7:

E|-----------------------------------------------------------------
B|-----------------------------------------------------------------
G|-----------------------------------------------------------------
D|-----------------------------------------------------------------
A|-2-----------------4-3------------5-4------------2-3-2-1-1-2-1-0-
E|-0----0----0-0-0-0-2-1----0-0-0-0-3-2----0-0-0-0-----------------

Stave 8:

E|---------------------------------------------------------------------------------------------
B|---------------------------------------------------------------------------------------------
G|---------------------------------------------------------------------------------------------
D|------------4-3---4---------------4-3---4---------------4-3---4------------------------------
A|-2----------2/1---2----3----------2/1---2----4----------2/1---2----------------------------2-
E|-0----0-0-0-----0------1----0-0-0-----0------2----0-0-0-----0------2-1-0-3-2-0-4-5-0-6-7-0-0-

Stave 9:

E|----------------------------------------------------------------------------------------------
B|----------------------------------------------------------------------------------------------
G|----------------------------------------------------------------------------------------------
D|------------4-3--------------------4-3--------------------4-3---------------------------------
A|-2----------2/1-------1-3----------2/1-------1-4----------2/1-------1-------------------------
E|-0----0-0-0-----0-1-2---1----0-0-0-----0-1-2---2----0-0-0-----0-1-2---2-1-0-3-2-0-4-5-0-6-7-0-

Stave 10:

E|------------------------------------------------------------------------------------------------
B|------------------------------------------------------------------------------------------------
G|------------------------------------------------------------------------------------------------
D|-6-------------7-------------6-------------5-------------6---6----5-6-5-----9-8-9---5-6-5-9-8-9-
A|-4----4-4-4----4----4-4-4----4----4-4-4----4----4-4-4----4-4-4----3-4-3-3-3-7-6-7-7-3-4-3-7-6-7-
E|------------------------------------------------------------------------------------------------

Stave 11:

E|------------------------------------------------------------------------------------------------
B|------------------------------------------------------------------------------------------------
G|------------------------------------------------------------------------------------------------
D|------------------------------------------------------------------------------------------------
A|-5-------------6-------------5-------------4-------------5---5----4-5-4-----8-7-8---4-5-4-8-7-8-
E|-3----3-3-3----3----3-3-3----3----3-3-3----3----3-3-3----3-3-3----2-3-2-2-2-6-5-6-6-2-3-2-6-5-6-

Stave 12:

E|-------------------------------------------------------------------------
B|-------------------------------------------------------------------------
G|-------------------------------------------------------------------------
D|-------------------------------------------------------------------------
A|-------------------------------------------------------------------------
E|-0-0-0----0-0-0----0-0-0----0-0-0----0-0-0----0-0-0----0-0-0----0-0-0----

Stave 13:

E|------------------------------------------------------------------------------------------------------
B|------------------------------------------------------------------------------------------------------
G|------------------------------------------------------------------------------------------------------
D|------------------------------------------------------------------------------------------------------
A|-------------------------------------------------------------------------2----------------------------
E|-5-2-2----4-1-1----5-2-2----4-1-1----5-2-2----4-1-1----5-2-2----4-1-1----0----0-0-0----0-0-0----0-0-0-

http://www.guitartabcreator.com
Guitar Tab Creator is intended to store guitar tab created through the tool. It currently does not support in-line text editing. Any text you place in here will be lost. If you need to comment on your tab, please use the "Tab Notes" section located below.