Sound will begin in 5 seconds

From the Ashes

Chords
01234567891011121314151617181920212223
E
B
G
D
A
E
B
0 1 2 3 4 5 6 7 8 9 10 11 12 13 14 15 16 17 18 19 20 21 22 23
Song Science #1: How Pros Use 6 Chords to Write Hit Songs
(/) Slide Up  (\) Slide Down  (h) Hammer On  (p) Pull Off  (b) Bend (r) Release (v) Vibrato

Stave 1:

E|---------------------------------------------------------------
B|---------------------------------------------------------------
G|---------------9-----------9-8-7---------------9-----------9-8-
D|-------------8-----------8-------------------8-----------8-----
A|-2---------7-----------7-------------------7-----------7-------
E|-0-0-0-0-0-------0-0-0-----------0-0-0-0-0-------0-0-0---------

Stave 2:

E|---------------------------------------------------------------------------------------------
B|---------------------------------------------------------------------------------------------
G|---------------------------------------------------------------------------------------------
D|---------------------------------1---3-------------------------------------2h3---3h4p3-------
A|-2-------3-2-------3-4-4-4-4-1-2---2---2-------3-2-------3-4-4-4-4-2h3---------5-------3-4-5-
E|-0-0-0-0-1-0-0-0-0-1-2-2-2-2-----------0-0-0-0-1-0-0-0-0-1-2-2-2-2-----4h5-------------------

Stave 3:

E|-------
B|-------
G|-------
D|-------
A|-------
E|-3-4-5-

Stave 4:

E|------------------------------------------------
B|------------------------------------------------
G|------------------------------------------------
D|--------------------------------------------8-7-
A|-------------------------8-7-------8-7----8-----
E|-0-0-0----0-0-0----0-0-0-----0-0-0-----10-------

Stave 5:

E|-----------------------------------------------------------------------
B|-----------------------------------------------------------------------
G|-----------------------------------------------------------------------
D|-10-----10-9--------------------8\7-10-----10\9--------------------8\7-
A|-8------8--7-----10---9---8-8\7-6-5-8------8--7-----10---9---8---7-6-5-
E|----0-0------0-0-8--0-7-0-6-6-5--------0-0------0-0-8--0-7-0-6-0-5-----

Stave 6:

E|--------------------------------------
B|--------------------------------------
G|--------------------------------------
D|-10-----10\9-----10---10\9--------8-7-
A|-8------8--7-----8----8--7------8-----
E|----0-0------0-0----0------7-10-------

Stave 7:

E|------------------
B|------------------
G|------------------
D|------------------
A|----2-4-5---5-4---
E|----0-----6-----5-

Stave 8:

E|---------------------------------------------
B|---------------------------------------------
G|---------------------------------------------
D|---------------------------------------------
A|---------------------------------------------
E|-0-0-0-3-0-2-0-0-0-1-0-0-0-3-0-2-0-1-5-0-4-0-

Stave 9:

E|-------------------------
B|-------------------------
G|-------------------------
D|-------------------------
A|-------------------------
E|-2-1-0-3-2-0-3-2-0-3-2-0-

Stave 10:

E|---------------------------------------------------------------------------------
B|---------------------------------------------------------------------------------
G|---------------------------------------------------------------------------------
D|-5-------------------4-------------------5-------------------5-----------------5-
A|-7-------------------5-------------------4-------------------3-------------5-4-7-
E|---2-1-0-3-2-0-3-2-0---2-1-0-3-2-0-3-2-0---2-1-0-3-2-0-3-2-0---2-1-0-3-2-0-3-2---

http://www.guitartabcreator.com
Guitar Tab Creator is intended to store guitar tab created through the tool. It currently does not support in-line text editing. Any text you place in here will be lost. If you need to comment on your tab, please use the "Tab Notes" section located below.