Sound will begin in 5 seconds

Ibo Alt "Why"

Chords
01234567891011121314151617181920212223
E
B
G
D
A
E
B
0 1 2 3 4 5 6 7 8 9 10 11 12 13 14 15 16 17 18 19 20 21 22 23
Song Science #1: How Pros Use 6 Chords to Write Hit Songs
(/) Slide Up  (\) Slide Down  (h) Hammer On  (p) Pull Off  (b) Bend (r) Release (v) Vibrato

Capo Fret 2

(W|WW) Whole (H|HH) Half (Q|QQ) Quarter (E|EE) 8th (S|SS) 16th (T|TT) 32nd (X|XX) 64th

Stave 1:
t: W E E E E E E E E E E E E E E E H W
E|-----3--3--3--3--2--2--2--2----------------------------|--
B|-----------------------------3--3--3--1--1--1--1p0-----|--
G|-------------------------------------------------------|--
D|-------------------------------------------------------|--
A|-------------------------------------------------------|--
E|--0-------------------------------------------------3--|--

Stave 2:
t: W E E E E E E E E E E E E E E E E E H W H H H H W
E|-----3--3--3--3--2--2--2--2----------------------------------------------|--
B|-----------------------------3--3--3--3/5--3--3\1\0----------------------|--
G|-----------------------------------------------------------2p0-----------|--
D|----------------------------------------------------------------2-----2--|--
A|----------------------------------------------------------------------3--|--
E|--3--------------------------------------------------3--3----------0-----|--

Stave 3:
t: H Q Q Q Q Q Q Q Q Q Q Q Q Q Q Q Q Q Q Q Q Q Q Q Q Q Q Q Q Q Q Q
E|-------------------------|-------------------------|-------------------------|-------------------------
B|-----3--1--0----------0--|-----3--1--0-------------|-----3--1--0----------0--|-----3--1--0-------------
G|--------------2--2p0-----|--------------2--2p0--0--|--------------2--2p0-----|--------------2--2p0--0--
D|-------------------------|----------------------2--|-------------------------|----------------------2--
A|-------------------------|-------------------------|--3----------------------|-------------------------
E|--0----------------------|--0----------------------|-------------------------|--3----------------------

Stave 4:
t: Q Q Q Q W Q Q H Q Q Q Q H Q Q Q Q H Q Q Q H Q H H
E|---------------------|--|-------------------------------------------------
B|---------------------|--|-----1h3p1p0--------3/5p0--------3----------3----
G|-----4--2p0----------|--|-----0--------------0------------2p0--------2p0--
D|--2----------5-------|--|--------------------------------------2--2-------
A|---------------------|--|-------------------------------------------------
E|----------------0h3--|--|--0-----------3--3---------3--3------------------

http://www.guitartabcreator.com
Guitar Tab Creator is intended to store guitar tab created through the tool. It currently does not support in-line text editing. Any text you place in here will be lost. If you need to comment on your tab, please use the "Tab Notes" section located below.