Sound will begin in 5 seconds

Ibo Alt

Chords
01234567891011121314151617181920212223
E
B
G
D
A
E
B
0 1 2 3 4 5 6 7 8 9 10 11 12 13 14 15 16 17 18 19 20 21 22 23
Song Science #1: How Pros Use 6 Chords to Write Hit Songs
(/) Slide Up  (\) Slide Down  (h) Hammer On  (p) Pull Off  (b) Bend (r) Release (v) Vibrato

Capo Fret 4

Stave 1:

E|------------------------------------------|------------------------------------------------
B|------------------------------------------|--3--1--0----------0--------3--1--0-------------
G|--------0--------0--2--0--4--2--2p0-------|-----------2--2p0--------------------2--2p0--0--
D|-----2-----2------------------------------|-------------------------0-------------------2--
A|--2-----------3---------------------------|------------------------------------------------
E|-------------------------------------0h3--|------------------------------------------------

Stave 2:

E|----------------------|------------------------------------------------------------------|--
B|----------------------|-----0-----------0-----3--------3-----5-----3\1\0-----------------|--
G|-----4--2p0-----------|--2-----2-----2-----2--------0-----0-----0---------2--2/4\2\0-----|--
D|--2----------5--------|------------------------------------------------------------------|--
A|----------------------|------------------------------------------------------------------|--
E|-------------------3--|---------------------------------------------------------------3--|--

Stave 3:

E|--0------------|-------------------------------------------|----------------|--
B|-----3/5p0-----|-----3--3--3--0--0-----------3--3--3--3----|-----------3----|--
G|---------------|-----2--2--2--0--0-----------2--2--2--2p0--|-----------2p0--|--
D|---------------|--------------------2-----2----------------|----------------|--
A|---------------|-------------------------------------------|--3-----3-------|--
E|------------3--|--3----------------------------------------|----------------|--

Stave 4:

E|----------------------|--------------------------------|-------------------
B|-----0--0-----1p0--0--|--------------1p0---------------|-------------------
G|-----------0----------|-----------0-------2p0--0-------|-------------------
D|--2-------------------|-------------------0----2--0h5--|-----4--2--2p0--2--
A|--3-------------------|--2--2--2-----------------------|----------------3--
E|----------------------|--3-----------------------------|--0----------------

Stave 5:

E|---------------------
B|--1p0----------------
G|----------0-----2p0--
D|---------------------
A|---------------------
E|-------3-----3-------

Stave 6:

E|------------------
B|--------3p0-------
G|-----0-------2p0--
D|------------------
A|------------------
E|--3---------------

http://www.guitartabcreator.com
Guitar Tab Creator is intended to store guitar tab created through the tool. It currently does not support in-line text editing. Any text you place in here will be lost. If you need to comment on your tab, please use the "Tab Notes" section located below.