Sound will begin in 5 seconds

Your Colors, Your Feelings

Chords
01234567891011121314151617181920212223
E
B
G
D
A
E
B
0 1 2 3 4 5 6 7 8 9 10 11 12 13 14 15 16 17 18 19 20 21 22 23
Song Science #1: How Pros Use 6 Chords to Write Hit Songs
(/) Slide Up  (\) Slide Down  (h) Hammer On  (p) Pull Off  (b) Bend (r) Release (v) Vibrato

Stave 1:

E|--0h2h5h9p5p0h4h5-------9p0--4h5h12p5--
B|-------------------3h5-----------------
G|---------------------------------------
D|---------------------------------------
A|---------------------------------------
E|---------------------------------------

Stave 2:

E|--0h2h5h9p5p0h4h5-------9/12--4h5p4p0--
B|-------------------3h5-----------------
G|---------------------------------------
D|---------------------------------------
A|---------------------------------------
E|---------------------------------------

Stave 3:

E|------------------------------------------------------------------------
B|------------------------------------------------------------------------
G|--14--13--9-----------14--13--9-----------------------------------------
D|------------------------------------------------------------------------
A|--12--11--7-----------12--11--7--------0--0--0--0--0--0--0--0--0--0--0--
E|---------------------------------------0--0--0--0--0--0--0--0--0--0--0--

Stave 4:

E|--------------------
B|--------------------
G|--------------------
D|--------------------
A|--2--2--2--2--2--2--
E|--2--2--2--2--2--2--

http://www.guitartabcreator.com
Guitar Tab Creator is intended to store guitar tab created through the tool. It currently does not support in-line text editing. Any text you place in here will be lost. If you need to comment on your tab, please use the "Tab Notes" section located below.