Sound will begin in 5 seconds

Yamada-kun to 7-nin no majo

Chords
01234567891011121314151617181920212223
E
B
G
D
A
E
B
0 1 2 3 4 5 6 7 8 9 10 11 12 13 14 15 16 17 18 19 20 21 22 23
Song Science #1: How Pros Use 6 Chords to Write Hit Songs
(/) Slide Up  (\) Slide Down  (h) Hammer On  (p) Pull Off  (b) Bend (r) Release (v) Vibrato

(W|WW) Whole (H|HH) Half (Q|QQ) Quarter (E|EE) 8th (S|SS) 16th (T|TT) 32nd (X|XX) 64th

Stave 1:
t: W W W W W H H H H H H W W W W W H H H W W W W W W W W W
E|----------------------------------------------------------------------------------
B|--7/8--7--5-----------------------------------------------------------------------
G|-------------7--4--5--7--5--4--------------4-------------6/7--4-------------4--7--
D|-------------------------------7--5--4--5-----0--0--2/4----------6/7--5--7--------
A|----------------------------------------------------------------------------------
E|----------------------------------------------------------------------------------

Stave 2:
t: WW H QQ QQ W W W WW H QQ QQ QQ
E|--10--7--10--10--|---------------|--|--7--10--10--|--|--12--
B|--8---7--8---8---|-----------8---|--|--7--8---8---|--|--12--
G|--7---7--9---9---|---------------|--|--7--9---9---|--|--12--
D|--9--------------|--9--7--9--9---|--|-------------|--|------
A|-----------------|-----------10--|--|-------------|--|------
E|-----------------|---------------|--|-------------|--|------

Stave 3:
t: H H H W W W WW HH H HH H HH H H W W H W W Q QQ Q Q W W W W W W W WW W WW W WW W W W W H H WW W WW W WW
E|-------------------------------------------------------------------------|-----------------------------------------------------------------------------
B|-------------------------------------------------------------------------|-----------------------------------------------------------------------------
G|--------------7---------------------------------------7------------------|--------------7--9-----------------------------------9--7--------------------
D|--9--9--9--7-----9----------7----------------9--7--7-----9--9--9h10p9h7--|--9--9--9--7--------9------7----------------9--7--7------------7-------------
A|--------------------10--10-----10--9--10--7------------------------------|-----------------------10-----10--9--10--7-----------------10-----10--9--10--
E|-------------------------------------------------------------------------|-----------------------------------------------------------------------------

http://www.guitartabcreator.com
Guitar Tab Creator is intended to store guitar tab created through the tool. It currently does not support in-line text editing. Any text you place in here will be lost. If you need to comment on your tab, please use the "Tab Notes" section located below.