Sound will begin in 5 seconds

Hawaii Five-O Fixed

01234567891011121314151617181920212223
E
B
G
D
A
E
B
0 1 2 3 4 5 6 7 8 9 10 11 12 13 14 15 16 17 18 19 20 21 22 23
Song Science #1: How Pros Use 6 Chords to Write Hit Songs
(/) Slide Up  (\) Slide Down  (h) Hammer On  (p) Pull Off  (b) Bend (r) Release (v) Vibrato

Stave 1:

E|------------------------------------------------------3----------------3----6--3-----------------------
B|-----------3------------------------------------3----------6--6--3----------------6--4-----------------
G|--------3-----5----------------3-------------3-----5----------------3-------------------5--------------
D|--5--5-----------5----5--5--3-----5----5--5------------------------------------------------5--3--------
A|-------------------------------------------------------------------------------------------------6--3--
E|-------------------------------------------------------------------------------------------------------

Stave 2:

E|--8--5-----------------------------------------------------------------------------------
B|--------8--6--------------------------8----6--6--3------------------------------4--------
G|--------------7--5-----------5--7--5----------------3--5----5--5-------------4-----6-----
D|--------------------8--6--8---------------------------------------6----6--6-----------6--
A|-----------------------------------------------------------------------------------------
E|-----------------------------------------------------------------------------------------

Stave 3:

E|----------------------------------4----------------4--
B|----------------------------4----------7--7--4--------
G|-----------4-------------4-----6----------------4-----
D|--6--6--4-----6----6--6-------------------------------
A|------------------------------------------------------
E|------------------------------------------------------

http://www.guitartabcreator.com
Guitar Tab Creator is intended to store guitar tab created through the tool. It currently does not support in-line text editing. Any text you place in here will be lost. If you need to comment on your tab, please use the "Tab Notes" section located below.