Running song intro

Chords

01234567891011121314151617181920212223
E
B
G
D
A
E
B
0 1 2 3 4 5 6 7 8 9 10 11 12 13 14 15 16 17 18 19 20 21 22 23
E|--------------------------------------------------------------------------
B|--------------------------------------------------------------------------
G|--------7--------7--------7--------7--------5--------5--------5--------5--
D|--5--5-----5--5-----5--5-----5--5-----5--5-----5--5-----5--5-----5--5-----
A|--------------------------------------------------------------------------
E|--------------------------------------------------------------------------



E|--------------------------------------------------------------------------
B|--------------------------------------------------------------------------
G|--------4--------4--------4--------4--------5--------5--------------5-----
D|--5--5-----5--5-----5--5-----5--5-----5--5-----5--5-----5--5--5--5-----5--
A|--------------------------------------------------------------------------
E|--------------------------------------------------------------------------



E|--------
B|--------
G|-----7--
D|--5-----
A|--------
E|--------
							http://www.guitartabcreator.com			
genre
[[],[],[],[],[],[]]

Member for

8 years 9 months
Submitted by HuJuice on Wed, 2011-08-24 21:28