Joker and the Thief

Chords

01234567891011121314151617181920212223
E
B
G
D
A
E
B
0 1 2 3 4 5 6 7 8 9 10 11 12 13 14 15 16 17 18 19 20 21 22 23
(/) Slide Up  (\) Slide Down  (h) Hammer On  (p) Pull Off  (b) Bend (r) Release (v) Vibrato

Stave 1:

E|-----------------------------------------------------------------------------------------------------------------------------------------------------------------
B|-----------------------------------------------------------------------------------------------------------------------------------------------------------------
G|-----------------------------------------------------------------------------------------------------------------------------------------------------------------
D|--------------7--5--4--5--4-----------------7--5--4--5--4-----------------7--5--4--5--4-----------------7--5--4--5--4--5--7-----------------7--9-----------------
A|--5--------------------------5--3--------------------------7--5--------------------------5--3--------------------------------------------------------------------
E|-----------------------------------------------------------------------------------------------------------------------------------------------------------------

Stave 2:

E|---------------------------------------------------------------------------------------------------------------------------------------------------------------------------------------------
B|---------------------------------------------------------------------------------------------------------------------------------------------------------------------------------------------
G|------------------14--12--11--12--11-------------------14--12--11--12--11-------------------14--12--11--12--11-------------------14--12--11--12--11--12--14-----------------14--16-----------
D|--9--12-------------------------------12--10-------------------------------14--12-------------------------------12--10-----------------------------------------------------------------------
A|---------------------------------------------------------------------------------------------------------------------------------------------------------------------------------------------
E|---------------------------------------------------------------------------------------------------------------------------------------------------------------------------------------------

Stave 3:

E|--------------------------------------------13----------------------------------------15----------------------------------------13----------------------------------------15--
B|------15--x--x--15--x--x--15--x--x--15--13------15--x--x--15--x--x--15--x--x--15--13------15--x--x--15--x--x--15--x--x--15--13------15--x--x--15--x--x--15--x--x--15--13------
G|--16--------------------------------------------------------------------------------------------------------------------------------------------------------------------------
D|------------------------------------------------------------------------------------------------------------------------------------------------------------------------------
A|------------------------------------------------------------------------------------------------------------------------------------------------------------------------------
E|------------------------------------------------------------------------------------------------------------------------------------------------------------------------------

Stave 4:

E|----------------------------------------13----------------------------------------15b17--17b15--13------
B|--15--x--x--15--x--x--15--x--x--15--13------15--x--x--15--x--x--15--x--x--15--13--------------------15--
G|--------------------------------------------------------------------------------------------------------
D|--------------------------------------------------------------------------------------------------------
A|--------------------------------------------------------------------------------------------------------
E|--------------------------------------------------------------------------------------------------------

							http://www.guitartabcreator.com
Instruments
{"strings":[[[".","_","_","_",".",".",".",".",".",".",".","_","_","_",".",".",".",".",".",".",".","_","_","_",".",".",".",".",".",".",".","_","_","_",".",".",".",".",".",".",".","_","_","_","_","_",".",".","_","_","_","_","_"],[".","_","_","_",".",".",".",".",".",".",".","_","_","_",".",".",".",".",".",".",".","_","_","_",".",".",".",".",".",".",".","_","_","_",".",".",".",".",".",".",".","_","_","_","_","_",".",".","_","_","_","_","_"],[".","_","_","_",".",".",".",".",".",".",".","_","_","_",".",".",".",".",".",".",".","_","_","_",".",".",".",".",".",".",".","_","_","_",".",".",".",".",".",".",".","_","_","_","_","_",".",".","_","_","_","_","_"],[".","_","_","_",7,5,4,5,4,".",".","_","_","_",7,5,4,5,4,".",".","_","_","_",7,5,4,5,4,".",".","_","_","_",7,5,4,5,4,5,7,"_","_","_","_","_",7,9,"_","_","_","_","_"],[5,"_","_","_",".",".",".",".",".",5,3,"_","_","_",".",".",".",".",".",7,5,"_","_","_",".",".",".",".",".",5,3,"_","_","_",".",".",".",".",".",".",".","_","_","_","_","_",".",".","_","_","_","_","_"],[".","_","_","_",".",".",".",".",".",".",".","_","_","_",".",".",".",".",".",".",".","_","_","_",".",".",".",".",".",".",".","_","_","_",".",".",".",".",".",".",".","_","_","_","_","_",".",".","_","_","_","_","_"]],[[".",".","_","_","_",".",".",".",".",".",".",".","_","_","_",".",".",".",".",".",".",".","_","_","_",".",".",".",".",".",".",".","_","_","_",".",".",".",".",".",".",".","_","_","_","_","_",".",".","_","_","_"],[".",".","_","_","_",".",".",".",".",".",".",".","_","_","_",".",".",".",".",".",".",".","_","_","_",".",".",".",".",".",".",".","_","_","_",".",".",".",".",".",".",".","_","_","_","_","_",".",".","_","_","_"],[".",".","_","_","_",14,12,11,12,11,".",".","_","_","_",14,12,11,12,11,".",".","_","_","_",14,12,11,12,11,".",".","_","_","_",14,12,11,12,11,12,14,"_","_","_","_","_",14,16,"_","_","_"],[9,12,"_","_","_",".",".",".",".",".",12,10,"_","_","_",".",".",".",".",".",14,12,"_","_","_",".",".",".",".",".",12,10,"_","_","_",".",".",".",".",".",".",".","_","_","_","_","_",".",".","_","_","_"],[".",".","_","_","_",".",".",".",".",".",".",".","_","_","_",".",".",".",".",".",".",".","_","_","_",".",".",".",".",".",".",".","_","_","_",".",".",".",".",".",".",".","_","_","_","_","_",".",".","_","_","_"],[".",".","_","_","_",".",".",".",".",".",".",".","_","_","_",".",".",".",".",".",".",".","_","_","_",".",".",".",".",".",".",".","_","_","_",".",".",".",".",".",".",".","_","_","_","_","_",".",".","_","_","_"]],[[".",".",".",".",".",".",".",".",".",".",".",".",13,".",".",".",".",".",".",".",".",".",".",".",15,".",".",".",".",".",".",".",".",".",".",".",13,".",".",".",".",".",".",".",".",".",".",".",15],[".",15,"x15","x15",15,"x15","x15",15,"x15","x15",15,13,".",15,"x15","x15",15,"x15","x15",15,"x15","x15",15,13,".",15,"x13","x13",15,"x13","x13",15,"x13","x13",15,13,".",15,"x15","x15",15,"x15","x15",15,"x15","x15",15,13,"."],[16,".",".",".",".",".",".",".",".",".",".",".",".",".",".",".",".",".",".",".",".",".",".",".",".",".",".",".",".",".",".",".",".",".",".",".",".",".",".",".",".",".",".",".",".",".",".",".","."],[".",".",".",".",".",".",".",".",".",".",".",".",".",".",".",".",".",".",".",".",".",".",".",".",".",".",".",".",".",".",".",".",".",".",".",".",".",".",".",".",".",".",".",".",".",".",".",".","."],[".",".",".",".",".",".",".",".",".",".",".",".",".",".",".",".",".",".",".",".",".",".",".",".",".",".",".",".",".",".",".",".",".",".",".",".",".",".",".",".",".",".",".",".",".",".",".",".","."],[".",".",".",".",".",".",".",".",".",".",".",".",".",".",".",".",".",".",".",".",".",".",".",".",".",".",".",".",".",".",".",".",".",".",".",".",".",".",".",".",".",".",".",".",".",".",".",".","."]],[[".",".",".",".",".",".",".",".",".",".",".",13,".",".",".",".",".",".",".",".",".",".",".",15,"b",17,17,"b",15,13,"."],[15,"x15","x15",15,"x15","x15",15,"x15","x15",15,13,".",15,"x15","x15",15,"x15","x15",15,"x15","x15",15,13,".",".",".",".",".",".",".",15],[".",".",".",".",".",".",".",".",".",".",".",".",".",".",".",".",".",".",".",".",".",".",".",".",".",".",".",".",".",".","."],[".",".",".",".",".",".",".",".",".",".",".",".",".",".",".",".",".",".",".",".",".",".",".",".",".",".",".",".",".",".","."],[".",".",".",".",".",".",".",".",".",".",".",".",".",".",".",".",".",".",".",".",".",".",".",".",".",".",".",".",".",".","."],[".",".",".",".",".",".",".",".",".",".",".",".",".",".",".",".",".",".",".",".",".",".",".",".",".",".",".",".",".",".","."]]],"numberofstrings":6,"notes":["E","B","G","D","A","E","B"],"capo":0,"stringnotes":["E4","B3","G3","D3","A2","E2"],"comments":["Stave 1:","Stave 2:","Stave 3:","Stave 4:"],"timing":[["W",null,null,null,"W","W","W","W","W","W","W",null,null,null,"W","W","W","W","W","W","W",null,null,null,"W","W","W","W","W","W","W",null,null,null,"W","W","W","W","W","W","W",null,null,"W","W",null,"W","W"],["W","W",null,null,null,"W","W","W","W","W","W","W",null,null,null,"W","W","W","W","W","W","W",null,null,null,"W","W","W","W","W","W","W",null,null,null,"W","W","W","W","W","W","W",null,null,null,null,null,"W","W"],["W","W","W","W","W","W","W","W","W","W","W","W","W","W","W","W","W","W","W","W","W","W","W","W","W","W","W","W","W","W","W","W","W","W","W","W","W","W","W","W","W","W","W","W","W","W","W","W","W","W","W"],["W","W","W","W","W","W","W","W","W","W","W","W","W","W","W","W","W","W","W","W","W","W","W","W","W",null,"W","W",null,"W","W","W"]],"timingvisible":false,"tabcounter":31,"stave":3,"totalstaves":4,"instrument":"6guitar","selectedtuning":"6_standard","version":"13"}

Member for

3 weeks
Submitted by Hugsy 3 on Tue, 2020-09-15 19:45