Deck The Halls Rock

Chords

01234567891011121314151617181920212223
E
B
G
D
A
E
B
0 1 2 3 4 5 6 7 8 9 10 11 12 13 14 15 16 17 18 19 20 21 22 23
(/) Slide Up  (\) Slide Down  (h) Hammer On  (p) Pull Off  (b) Bend (r) Release (v) Vibrato

Stave 1:

E|-------------------------------------------------------------------
B|--12--10--9-------------9---------------9--10------9---------------
G|-------------11--9--11-----9--------11---------11-----11--9--8--9--
D|-------------------------------------------------------------------
A|-------------------------------------------------------------------
E|-------------------------------------------------------------------

Stave 2:

E|-------------------------------------------9--11--12--11--9------
B|------9--10------9--10--12------9--10--12--------------------12--
G|--11---------11-------------11-----------------------------------
D|-----------------------------------------------------------------
A|-----------------------------------------------------------------
E|-----------------------------------------------------------------

Stave 3:

E|-------------------------------------------------------------------------------
B|--12--10--9-------------9-----12b14--14--14--14--12--10--9---------------------
G|-------------11--9--11-----9--------------------------------11--9--------------
D|-------------------------------------------------------------------------------
A|-------------------------------------------------------------------------------
E|-------------------------------------------------------------------------------

							http://www.guitartabcreator.com(E
Tab Notes
Stave 1: E Stave 2: F# > B Stave 3: B > F#
Instruments
{"strings":[[[".",".",".",".",".",".",".",".","_","_",".",".",".",".",".",".",".",".","."],[12,10,9,".",".",".",9,".","_","_",".",9,10,".",9,".",".",".","."],[".",".",".",11,9,11,".",9,"_","_",11,".",".",11,".",11,9,8,9],[".",".",".",".",".",".",".",".","_","_",".",".",".",".",".",".",".",".","."],[".",".",".",".",".",".",".",".","_","_",".",".",".",".",".",".",".",".","."],[".",".",".",".",".",".",".",".","_","_",".",".",".",".",".",".",".",".","."]],[[".",".",".",".",".",".",".",".",".",".",".",9,11,12,11,9,"."],[".",9,10,".",9,10,12,".",9,10,12,".",".",".",".",".",12],[11,".",".",11,".",".",".",11,".",".",".",".",".",".",".",".","."],[".",".",".",".",".",".",".",".",".",".",".",".",".",".",".",".","."],[".",".",".",".",".",".",".",".",".",".",".",".",".",".",".",".","."],[".",".",".",".",".",".",".",".",".",".",".",".",".",".",".",".","."]],[[".",".",".",".",".",".",".",".",".",".",".",".",".",".",".",".",".",".",".","_","_","_","_"],[12,10,9,".",".",".",9,".",12,"b",14,14,14,14,12,10,9,".",".","_","_","_","_"],[".",".",".",11,9,11,".",9,".",".",".",".",".",".",".",".",".",11,9,"_","_","_","_"],[".",".",".",".",".",".",".",".",".",".",".",".",".",".",".",".",".",".",".","_","_","_","_"],[".",".",".",".",".",".",".",".",".",".",".",".",".",".",".",".",".",".",".","_","_","_","_"],[".",".",".",".",".",".",".",".",".",".",".",".",".",".",".",".",".",".",".","_","_","_","_"]]],"numberofstrings":6,"notes":["E","B","G","D","A","E","B"],"capo":0,"stringnotes":["E4","B3","G3","D3","A2","E2"],"comments":["Stave 1:","Stave 2:","Stave 3:"],"timing":[["W","W","W","W","W","W","W","W","W",null,"W","W","W","W","W","W","W","W","W"],["W","W","W","W","W","W","W","W","W","W","W","W","W","W","W","W","W"],["W","W","W","W","W","W","W","W","W",null,"W","W","W","W","W","W","W","W","W"]],"timingvisible":false,"tabcounter":23,"stave":2,"totalstaves":3,"instrument":"6guitar","selectedtuning":"6_standard","version":"13"}

Member for

1 week 6 days
Submitted by hscott56 on Wed, 2020-11-18 20:57