Sound will begin in 5 seconds

Yiruma - Kiss The Rain

Chords
01234567891011121314151617181920212223
E
B
G
D
A
E
B
0 1 2 3 4 5 6 7 8 9 10 11 12 13 14 15 16 17 18 19 20 21 22 23
Learn to Play Guitar Online
(/) Slide Up  (\) Slide Down  (h) Hammer On  (p) Pull Off  (b) Bend (r) Release (v) Vibrato

Capo Fret 2

Stave 1:

E|----------------------------------------------------|-----0--2--2--3--3--------5--5\7--5--3--2--------
B|--------------0--0----------------0-----3--3--------|--3--------0-----------0----------------------3--
G|-----0--2--2-----------0-----0h2-----2-----------2--|--------------------0----------------------4-----
D|--0-----------------0-------------------------0-----|----------------------------------------0--------
A|----------------------------------------------------|-------------------------------------------------
E|-----------3-----3-------------------2-----0--------|-----------0-----0-------------------------------

Stave 2:

E|-----|--3--2--------0--0-----------------------------------|------------------------------------------
B|-----|--------3--3-----------1-----3--1--1--3--3-----------|-------0--1--1--------3--1--0-------------
G|--4--|--------------------0-----------------------------0--|--0h2--------------2---------------12--2--
D|-----|-----------------------------------------------0-----|----------------2-----------0--12---------
A|-----|-----------3-----3-----------------2-----2-----------|-------0-----0----------------------------
E|-----|-----------------------------------------------------|------------------------------------------

Stave 3:

E|--------------------------------|----------------------------------3--2--------0--0--------------
B|--------------0--0--------------|-------0-----3--3-----------------3-----3--3-----------3-----1--
G|-----0--2--2-----------2-----0--|--0h2-----2-----------2-----2-----4-----------------0-----0-----
D|--0-----------------0-----0-----|-------------------0-----0--------------------------------------
A|--------------------------------|-------------------------------------------3-----3--------------
E|-----------3-----3--------------|----------2-----0-----------------------------------------------

Stave 4:

E|-----------------------------|----------------------------------------|-----------0--------------
B|--3--1--1--3--3--------------|-------0--1--------------------1--3--0--|-----0--3--------3-----1--
G|--------------------0-----0--|--0h2-----------0--------0-----------0--|--0-----------0-----0-----
D|-----------------0-----0-----|-------------2-----4--------0--------0--|--------------------------
A|--------2-----2--------------|-------0--------------------------------|-----------3--------------
E|-----------------------------|-------------------------3--------------|--------------------------

Stave 5:

E|--------0-----------------|--------------------------------------------------|-----------0--------
B|-----------3--------------|--------3--3--1--1--0--0--------------0--0--------|-----0--3--------0--
G|-----0-----------0-----0--|-----0-----0--------------2--2--0--2-----------0--|--0-----------0-----
D|--4-----------0-----0-----|--4--------------------0-----0--------------0-----|--------------------
A|-----------2--------------|-----------0-----0--------------------------------|-----------4--------
E|--3-----------------------|-----------------------------------3-----3--------|--------------------

Stave 6:

E|--------2--2--0-----------|-------------------------------0-----2-----3\7--7--------5--|--5--7--
B|-----------------3--------|--0h1--3-----1--0--1-----3----------------------------8-----|--------
G|--0--------3-----------4--|----------1-----------------------0-----0----------7--------|--------
D|--------------------4-----|----------------------2-----2-------------------0-----------|--------
A|-----------------2--------|-------------------0----------------------------------------|--------
E|-----2--------------------|-------0----------------------------------------------------|--------

Stave 7:

E|--7--8--0--3--2--3--------------3--
B|-----------------------1--3--0-----
G|--------------------0--------0-----
D|-----------0-----------------------
A|--0--------------3-----------------
E|-----------------------------3-----

http://www.guitartabcreator.com
Guitar Tab Creator is intended to store guitar tab created through the tool. It currently does not support in-line text editing. Any text you place in here will be lost. If you need to comment on your tab, please use the "Tab Notes" section located below.