Emma Bass Tab

01234567891011121314151617181920212223
E
B
G
D
A
E
B
0 1 2 3 4 5 6 7 8 9 10 11 12 13 14 15 16 17 18 19 20 21 22 23
(/) Slide Up  (\) Slide Down  (h) Hammer On  (p) Pull Off  (b) Bend (r) Release (v) Vibrato

Stave 1:

G|-----------------------------------
D|-----------------------------------
A|--3-----4--4--4--4--4--6-----6-----
E|--------------------------------|--

Stave 2:

G|-----------------------------------
D|--------------3--4--4--4--4--6--6--
A|--4-----4--------------------------
E|-----------------------------------

Stave 3:

G|-------------------------------------------------------------------
D|-----------3-----4--4--4--4--6--6----------------------------------
A|--4-----4--------------------------6-----6-----6/9--9--9--9--8--6--
E|-------------------------------------------------------------------

Stave 4:

G|--------------------------------------------------------------------------------------------------------
D|-----------------------------------------------------------------------------9--7-----7--7--------------
A|--11-----11-----11--11--11--11--9-----9-----9--9--9--9--7-----7-----7--7--7-----------------7-----7--9--
E|--------------------------------------------------------------------------------------------------------

Stave 5:

G|--------------------------------------------------
D|--------------------------------------------------
A|--4-----------------------------------------------
E|--------------4-----------2-----------0-----------

Stave 6:

G|--------------------------------------------------
D|--------------------------------------------------
A|--4--------6--------------------------------------
E|--------------4-----4/13--2--------2--0-----------

Stave 7:

G|--------------------------------------------------------------------------------------------------
D|--------------------------------------------------------------------------------------------------
A|--4--4--4--4--4--4--4--4--------------------------------------------------------------------------
E|--------------------------4--4--4--4--4--4--4--4--2--2--2--2--2--2--2--2--0--0--0--0--0--0--0--0--

Stave 8:

G|-----
D|-----
A|--4--
E|-----

							http://www.guitartabcreator.com
Chords

Instruments
{"strings":[[[".","_",".",".",".",".",".",".","_",".","."],[".","_",".",".",".",".",".",".","_",".","."],[3,"_",4,4,4,4,4,6,"_",6,"."],[".","_",".",".",".",".",".",".","_",".","|"]],[[".","_",".","_",".",".",".",".",".",".","."],[".","_",".","_",3,4,4,4,4,6,6],[4,"_",4,"_",".",".",".",".",".",".","."],[".","_",".","_",".",".",".",".",".",".","."]],[[".","_",".",".","_",".",".",".",".",".",".",".","_",".","_",".",".",".",".",".",".",".","."],[".","_",".",3,"_",4,4,4,4,6,6,".","_",".","_",".",".",".",".",".",".",".","."],[4,"_",4,".","_",".",".",".",".",".",".",6,"_",6,"_",6,"/",9,9,9,9,8,6],[".","_",".",".","_",".",".",".",".",".",".",".","_",".","_",".",".",".",".",".",".",".","."]],[[".","_",".","_",".",".",".",".",".","_",".","_",".",".",".",".",".","_",".","_",".",".",".",".",".","_",".",".",".","_",".","."],[".","_",".","_",".",".",".",".",".","_",".","_",".",".",".",".",".","_",".","_",".",".",".",9,7,"_",7,7,".","_",".","."],[11,"_",11,"_",11,11,11,11,9,"_",9,"_",9,9,9,9,7,"_",7,"_",7,7,7,".",".","_",".",".",7,"_",7,9],[".","_",".","_",".",".",".",".",".","_",".","_",".",".",".",".",".","_",".","_",".",".",".",".",".","_",".",".",".","_",".","."]],[[".","_","_","_",".","_","_","_",".","_","_","_",".","_","_","_"],[".","_","_","_",".","_","_","_",".","_","_","_",".","_","_","_"],[4,"_","_","_",".","_","_","_",".","_","_","_",".","_","_","_"],[".","_","_","_",4,"_","_","_",2,"_","_","_",0,"_","_","_"]],[[".","_","_",".",".","_",".",".",".",".","_","_",".",".","_","_","_"],[".","_","_",".",".","_",".",".",".",".","_","_",".",".","_","_","_"],[4,"_","_",6,".","_",".",".",".",".","_","_",".",".","_","_","_"],[".","_","_",".",4,"_",4,"/",13,2,"_","_",2,0,"_","_","_"]],[[".",".",".",".",".",".",".",".",".",".",".",".",".",".",".",".",".",".",".",".",".",".",".",".",".",".",".",".",".",".",".","."],[".",".",".",".",".",".",".",".",".",".",".",".",".",".",".",".",".",".",".",".",".",".",".",".",".",".",".",".",".",".",".","."],[4,4,4,4,4,4,4,4,".",".",".",".",".",".",".",".",".",".",".",".",".",".",".",".",".",".",".",".",".",".",".","."],[".",".",".",".",".",".",".",".",4,4,4,4,4,4,4,4,2,2,2,2,2,2,2,2,0,0,0,0,0,0,0,0]],[["."],["."],[4],["."]]],"numberofstrings":4,"notes":["G","D","A","E"],"capo":0,"stringnotes":["G2","D2","A1","E1"],"comments":["Stave 1:","Stave 2:","Stave 3:","Stave 4:","Stave 5:","Stave 6:","Stave 7:","Stave 8:"],"timing":[["W","W","W","W","W","W","W","W","W","W"],["W","W","W","W","W","W","W","W","W","W","W"],["W","W","W","W","W","W","W","W","W","W","W","W","W","W","W","W",null,"W","W","W","W","W","W"],["W","W","W","W","W","W","W","W","W","W","W","W","W","W","W","W","W","W","W","W","W","W","W","W","W","W","W","W","W","W","W","W"],["W","W","W","W","W","W","W","W","W","W","W","W","W","W","W","W"],["W","W","W","W","W","W","W",null,"W","W","W","W","W","W","W","W","W"],["W","W","W","W","W","W","W","W","W","W","W","W","W","W","W","W","W","W","W","W","W","W","W","W","W","W","W","W","W","W","W","W"],["W"]],"timingvisible":false,"tabcounter":1,"stave":7,"totalstaves":8,"instrument":"4bass","selectedtuning":"4bass","version":"13"}

Member for

4 years 8 months
Submitted by howscandinavian on Sun, 2021-10-10 23:39