Sound will begin in 5 seconds

doomy

Chords
01234567891011121314151617181920212223
E
B
G
D
A
E
B
0 1 2 3 4 5 6 7 8 9 10 11 12 13 14 15 16 17 18 19 20 21 22 23
Song Science #1: How Pros Use 6 Chords to Write Hit Songs
(/) Slide Up  (\) Slide Down  (h) Hammer On  (p) Pull Off  (b) Bend (r) Release (v) Vibrato

Stave 1:

E|-----------------------------------------
B|-----------------------------------------
G|-----------------------------------------
D|-----------------------------------------
A|-----------------5-----4-----------------
D|--0-----5--8--------------------3-----2--

Stave 2:

E|--------------------------------------------------------------------------------------
B|--------------------------------------------------------------------------------------
G|-----------------7-----6--------------------------------------------------------------
D|--0--------------7-----6--------------------------------------4-----3-----------------
A|--0--------------5-----4--------------------------------------5-----4--------3-----2--
D|--0-----5--8--------------------3-----2--------0-----5--8--------------------3-----2--

Stave 3:

E|-----------------------------------------------------------
B|-----------------------------------------------------------
G|-----------------------------------------------------------
D|-----------------------------3--3-----2--2-----1-----------
A|--------------5--0--4--0-----5--5-----4--4-----3-----------
D|--0--5--7--8--------------0--3--3--0--2--2--0--1-----------

Stave 4:

E|--------------------------------------------------------
B|--------------------------------------------------------
G|-----7--7--------6-----6--------------------------------
D|--------------------------------------------------------
A|-----5--5--------4-----4-----------5--------------------
D|--7-----------6-----------------6-----6--5--0--3--3--2--

Stave 5:

E|--------------------------------------------------------------------------------------------------
B|--------------------------------------------------------------------------------------------------
G|--------------------------------------------1--0--------------------------------------------------
D|-----------0--3--2--1--0-----------0--3--2-----------------0--7--5-----------------0--5--3--------
A|-----5--6--------------------5--6--------------------7--8-----------8--7-----7--8-----------4--0--
D|--0-----------------------6-----------------------8-----------------------8-----------------------

Stave 6:

E|--------------------------------------------------------------------------------
B|--------------------------------------------------------------------------------
G|--------------------------7-----6-----------------------------------------------
D|--------------------------7-----6-----------------------------------------------
A|--------------------------5-----4-----------------------------------------------
D|--0-----0-----0--0--0--------------------0-----0--0--0-----0-----0--0-----0--0--

Stave 7:

E|--------------------------------------------------------------------------------
B|--------------------------------------------------------------------------------
G|--------------------------------------------------------------------------------
D|--------------------------4-----3-----------------------------------------------
A|--------------------------5-----4-----------------------------------------------
D|--0-----0-----0--0--0--------------------0-----0--0--0-----0-----0--0--0--0--0--

Stave 8:

E|--------------------------------------------------------------------------------------------
B|--------------------------------------------------------------------------------------------
G|--------------------------------------------------------------------------------------------
D|--------------------------------------------------------------------------------------------
A|--------------------------------------------------------------------1--1--------0--0--------
D|--0--0--0--0--0--0--1--1--3--3--3--3--3--3--1--3--5--5--5--5--5--5--------3--3--------2--2--

Stave 9:

E|--------------------------------------------------
B|--------------------------------------------------
G|-----------4--5--4-----------------1--2--1--------
D|--------5-----------5--------2--3-----------3--2--
A|--5--6-----------------6--3-----------------------
D|--------------------------------------------------

http://www.guitartabcreator.com
Guitar Tab Creator is intended to store guitar tab created through the tool. It currently does not support in-line text editing. Any text you place in here will be lost. If you need to comment on your tab, please use the "Tab Notes" section located below.