Mr Melonhead bass

01234567891011121314151617181920212223
E
B
G
D
A
E
B
0 1 2 3 4 5 6 7 8 9 10 11 12 13 14 15 16 17 18 19 20 21 22 23
(/) Slide Up  (\) Slide Down  (h) Hammer On  (p) Pull Off  (b) Bend (r) Release (v) Vibrato

Stave 1:

G|--------------7-----------|--------------------------|--------------7-----------|--------------------|--
D|-----9--9--------9--7--9--|-----9--9--------7--6-----|-----9--9--------9--7--9--|-----9--9-----------|--
A|-----------9--------------|-----------9--7--------5--|-----------9--------------|-----------9--7--5--|--
E|--7-----------------------|--7-----------------------|--7-----------------------|--7-----------------|--

Stave 2:

G|--------7--7--7--7--------|--------------------------|-----
D|--9--9--------------7--9--|-----9--9--------7--6-----|-----
A|--------------------------|-----------9--7--------5--|-----
E|--------------------------|--7-----------------------|--7--

Stave 3:

G|--
D|--
A|--
E|--

Stave 4:

G|--------------7-----------|--------------------------|--------------7-----------|-----------------------------------|--
D|-----9--9--------9--7--9--|-----9--9--------7--6-----|-----9--9--------9--7--9--|-----9--9--------------7--6--------|--
A|-----------9--------------|-----------9--7--------5--|-----------9--------------|-----------9--7--8--9--------7--5--|--
E|--7-----------------------|--7-----------------------|--7-----------------------|--7--------------------------------|--

Stave 5:

G|--------------7-----------|--------------------|--------------7-----------|--------------------------|--
D|-----9--9--------9--7--9--|-----9--9-----------|-----9--9--------9--7--9--|-----9--9--------7-----8--|--
A|-----------9--------------|-----------9--7--5--|-----------9--------------|-----------9--------------|--
E|--7-----------------------|--7-----------------|--7-----------------------|--7-----------5-----6-----|--

							http://www.guitartabcreator.com
Chords

Instruments
{"strings":[[[".",".",".",".",7,".",".",".","|",".",".",".",".",".",".",".",".","|",".",".",".",".",7,".",".",".","|",".",".",".",".",".",".","|"],[".",9,9,".",".",9,7,9,"|",".",9,9,".",".",7,6,".","|",".",9,9,".",".",9,7,9,"|",".",9,9,".",".",".","|"],[".",".",".",9,".",".",".",".","|",".",".",".",9,7,".",".",5,"|",".",".",".",9,".",".",".",".","|",".",".",".",9,7,5,"|"],[7,".",".",".",".",".",".",".","|",7,".",".",".",".",".",".",".","|",7,".",".",".",".",".",".",".","|",7,".",".",".",".",".","|"]],[[".",".",7,7,7,7,".",".","|",".",".",".",".",".",".",".",".","|","."],[9,9,".",".",".",".",7,9,"|",".",9,9,".",".",7,6,".","|","."],[".",".",".",".",".",".",".",".","|",".",".",".",9,7,".",".",5,"|","."],[".",".",".",".",".",".",".",".","|",7,".",".",".",".",".",".",".","|",7]],[[],[],[],[]],[[".",".",".",".",7,".",".",".","|",".",".",".",".",".",".",".",".","|",".",".",".",".",7,".",".",".","|",".",".",".",".",".",".",".",".",".",".",".","|"],[".",9,9,".",".",9,7,9,"|",".",9,9,".",".",7,6,".","|",".",9,9,".",".",9,7,9,"|",".",9,9,".",".",".",".",7,6,".",".","|"],[".",".",".",9,".",".",".",".","|",".",".",".",9,7,".",".",5,"|",".",".",".",9,".",".",".",".","|",".",".",".",9,7,8,9,".",".",7,5,"|"],[7,".",".",".",".",".",".",".","|",7,".",".",".",".",".",".",".","|",7,".",".",".",".",".",".",".","|",7,".",".",".",".",".",".",".",".",".",".","|"]],[[".",".",".",".",7,".",".",".","|",".",".",".",".",".",".","|",".",".",".",".",7,".",".",".","|",".",".",".",".",".",".",".",".","|"],[".",9,9,".",".",9,7,9,"|",".",9,9,".",".",".","|",".",9,9,".",".",9,7,9,"|",".",9,9,".",".",7,".",8,"|"],[".",".",".",9,".",".",".",".","|",".",".",".",9,7,5,"|",".",".",".",9,".",".",".",".","|",".",".",".",9,".",".",".",".","|"],[7,".",".",".",".",".",".",".","|",7,".",".",".",".",".","|",7,".",".",".",".",".",".",".","|",7,".",".",".",5,".",6,".","|"]]],"numberofstrings":4,"notes":["G","D","A","E"],"capo":0,"stringnotes":["G2","D2","A1","E1"],"comments":["Stave 1:","Stave 2:","Stave 3:","Stave 4:","Stave 5:"],"timing":[["W","W","W","W","W","W","W","W",null,"W","W","W","W","W","W","W","W",null,"W","W","W","W","W","W","W","W",null,"W","W","W","W","W","W"],["W","W","W","W","W","W","W","W",null,"W","W","W","W","W","W","W","W",null,"W","W","W","W","W","W","W","W","W","W","W"],["W","W","W","W","W","W","W","W"],["W","W","W","W","W","W","W","W","W","W","W","W","W","W","W","W","W",null,"W","W","W","W","W","W","W","W",null,"W","W","W","W","W","W","W","W","W","W","W"],["W","W","W","W","W","W","W","W",null,"W","W","W","W","W","W",null,"W","W","W","W","W","W","W","W",null,"W","W","W","W","W","W","W","W","W"]],"timingvisible":false,"tabcounter":34,"stave":4,"totalstaves":5,"instrument":"4bass","selectedtuning":"4bass","version":"13"}

Member for

6 months 3 weeks
Submitted by hottentot on Fri, 2020-11-27 23:34